Регистрация

Напитки покрепче

  • Автор: Звери
  • Текст песни:
    Вступление:
    
        Cm       F     B  Dm  Gm    Cm      F  B  Dm Gm
    E|---20/22-20------18/20-18-------20/22-20-----------------------|
    H|-20------------18-------------20---------18-20-----------------|
    G|-----------------------------------------------19-17-----------|
    
       Cm        F     B  Dm  Gm    Cm      F  B  Dm Gm         Eb
    E|---20/22-20------18/20-18-------20/22-20-----------------------|
    H|-20------------18-------------20---------23-22-2015-16-18/20--|
    G|---------------------------------------------------------------|
    
    Gm		Cm
    И нигде и ни во сколько
    F		Gm
    Повстречались и забыли
    Брызги капельки осколки
    Никого не зацепили
    
    Брызги капельки на ветер
    И тебя никто не тронет
    Дядя Степа на конфете
    Помещается в ладони
    
      Cm	   F	     B   Dm Gm
    Напитки покрепче слова покороче
    Так проще так легче стираются ночи
    Звонки без ответа слова и улыбки
                                    Eb
    Вчерашнее лето - смешная ошибка
    
    А давай как будто праздник
    В небо шарики салюты
    Синий белый желтый красный
    Брызги капельки минуты
    
    Падаю на ровном месте
    Зацепится бы за воздух
    Там где нолик ставил крестик
    Там где рано ставил поздно
    
    Припев
    
    Брызги капельки минуты
    Становился чемпионом
    Выбирал себе маршруты
    Выбирал себе пероны
    
    И нигде и ни во сколько
    Чтобы не было вопросов
    Брызги капельки осколки
    Холостые папиросы
    
    Припев
    
    Соло:
    
    Е|--------13/15---15-----------------------------------------------
    H|-------------------18-18---15h16p15------------------------------
    G|------------------------------------17-15-14-15-14----14-15-17---
    D|---------------------------------------------------17------------
    A|-----------------------------------------------------------------
    E|-----------------------------------------------------------------
    
    ----------------13/15---------------------------15--15-17-18-18/20-
    --13/15-16-15----------18-16-15h16p15---------15-------------------
    -------------17----------------------17--15-17---------------------
    -------------------------------------------------------------------
    -------------------------------------------------------------------
    -------------------------------------------------------------------
    
    ---22-20-----------------------22--23-22-20-------------------------|
    ---------22-23-22-20---20-22-23--------------23--22--2015-16-18/20-|
    ---------------------22---------------------------------------------|
    --------------------------------------------------------------------|
    --------------------------------------------------------------------|
    --------------------------------------------------------------------|
    
  • Аккорды, присутствующие в подборе:
Рейтинг: 0 Голосов: 0 Ваша оценка:

© 2012 MuzHub.net

Поддержка: info@muzhub.net. Создание сайта - DesignWebStudio.com.ua