Регистрация

Ammaring

  • Автор: Dinosaur Jr
  • Текст песни:
    -0----------------------------------
    -1-3/5-3-1-0h1h3/5------------------VERSE
    -2----------------------------------
    -3----------------------------------
    -0----------------------------------
    ------------------------------------
    
    -3---0------------------------------
    -3---1-3/5-3-1----------------------CHORUS
    -0-0-2---------2--------------------
    -0-2-3-----------3------------------
    -2-2-0------------------------------
    -3-0--------------------------------
    
    good song by j mascis. hes got skills. im not done figuring out the solos yet
    but ill post them when im done. any questions or corrections tell me. jakeskate31489@aol.com
Рейтинг: 0 Голосов: 0 Ваша оценка:

© 2012 MuzHub.net

Поддержка: info@muzhub.net. Создание сайта - DesignWebStudio.com.ua