Регистрация

Nothing

  • Автор: A
  • Текст песни:
    Author/Artist: A
    Title: Nothing
    Transcribed by: Dave Saunders
    Email: ribbit@ic24.net
    Tuning: Drop D
    
    I took the time to tab out the entire song, not just the verses etc.. enjoy :] 
    email me feedback if you must ;]
    
    
    intro & choruses:
    ------------------------------------------------------------------------------
    ------------------------------------------------------------------------------
    ------------------------------------------------------------------------------
    -4-4-4-4--4-4-4-4-4-4-7-7-7-7-0-0-0-0--0-0-0-0-0-0-7-7-7-7--------------------
    -4-4-4-4--4-4-4-4-4-4-7-7-7-7-0-0-0-0--0-0-0-0-0-0-7-7-7-7--------------------
    -4-4-4-4--4-4-4-4-4-4-7-7-7-7-0-0-0-0--0-0-0-0-0-0-7-7-7-7--------------------
    
    ------------------------------------------------------------------------------
    ------------------------------------------------------------------------------
    ------------------------------------------------------------------------------
    -4-4-4-4--4-4-4-4-4-4-7-7-7-7-0-0-0--h12---0-0-0-h12--0-h12-------------------
    -4-4-4-4--4-4-4-4-4-4-7-7-7-7-0-0-0--h12---0-0-0-h12--0-h12-------------------
    -4-4-4-4--4-4-4-4-4-4-7-7-7-7-0-0-0--h12---0-0-0-h12--0-h12-------------------
    
    
    Verses:
    --17-16-14---17-16-14---------------------------------------------------------
    -------------------------17-15-14--15--14h15---15-14-17-15-14-----------------
    ------------------------------------------------------------------------------
    ------------------------------------------------------------------------------
    ------------------------------------------------------------------------------
    ------------------------------------------------------------------------------
    play twice through, 2nd time, finger drag on the low E instead of playing the
    last note (14), as you switch to play the bridge
    
    Bridge 1:
    when he start singing ’flyyyyyyy aawwaaaayyyy’..
    -------------|------10-9------|-----------------------------------------------
    ------10-----|-----------7----|-------10---10---------------------------------
    --7-9----9---|----------------|---7-9----9------------------------------------
    -------------|----------------|-----------------------------------------------
    -- PART 1  --|--   PART 2   --|--   PART 3   ---------------------------------
    -------------|----------------|-----------------------------------------------
    this appears 2 times. first time, play: Pt1 x6,  Pt2,  Pt1 x6 then Pt3
                         second time, play: Pt1 x6,  Pt3
    
    play chorus.
    
    after that, play:   (listen to the song to get the rhythm/count of strums) 
    ----------------------------|-------------------------------------------------
    ----------------------------|-------------------------------------------------
    ----------------------------|-------------------------------------------------
    -11-----12-----14------16---|----16----------4-/-1----------------------------
    -11-----12-----14------16---|----16----------4-/-1----------------------------
    -11-----12-----14------16---|----16----------4-/-1----------------------------
        2nd time around the 16’s get played a lot more &
                                at the end the 4’s are played and dragged down &
                               ’faded out’ at fret 1. listen to the song to understand
    
    then it goes quiet as the guy sings, play:
    THAT..       MUCH..      NOTHING..NOTHING!
    ------------------------------------------------------------------------------
    ------------------------------------------------------------------------------
    ------------------------------------------------------------------------------
    -4x-(4-4-4)--4x-(4-4-4)--4x--4x--4x---------(4-4-4)---------------------------
    -4x-(4-4-4)--4x-(4-4-4)--4x--4x--4x---------(4-4-4)---------------------------
    -4x-(4-4-4)--4x-(4-4-4)--4x--4x--4x---------(4-4-4)---------------------------
         .....       .....                       .....    ..palm mute the dotted..
    
    play the chorus 3 times and then:
    
    ------------------------------------------------------------------------------
    ------------------------------------------------------------------------------
    ------------------------------------------------------------------------------
    -4-4-4-4--4-4-4-4-4-4-7-7-7-7-0-0-0-0--0-0-0-0-0-0-7-7-7-7--------------------
    -4-4-4-4--4-4-4-4-4-4-7-7-7-7-0-0-0-0--0-0-0-0-0-0-7-7-7-7--------------------
    -4-4-4-4--4-4-4-4-4-4-7-7-7-7-0-0-0-0--0-0-0-0-0-0-7-7-7-7--------------------
    
    ------------------------------------------------------------------------------
    ------------------------------------------------------------------------------
    ------------------------------------------------------------------------------
    -4-4-4-4--4-4-4-4-4-4-7-7-7-7x------------------------------------------------
    -4-4-4-4--4-4-4-4-4-4-7-7-7-7x------------------------------------------------
    -4-4-4-4--4-4-4-4-4-4-7-7-7-7x------------------------------------------------
  • Аккорды, присутствующие в подборе:
Рейтинг: 0 Голосов: 0 Ваша оценка:

© 2012 MuzHub.net

Поддержка: info@muzhub.net. Создание сайта - DesignWebStudio.com.ua