Регистрация

Somethings Going On

  • Автор: A
  • Текст песни:
    Artist:A
    Track:Something’s Going On
    Album:Hi-Fi Serious
    
    Another great song off thier new album.
    
    Intro
    G:-------------------------------------|
    D:-------------------------------------|x2
    A:-55555555-22222222-------------------|
    E:-------------------55555555-33333333-|
    
    Verse
    G:-----------------------------------------------------|
    D:-----------------------------------------------------|
    A:-5555555555555555------------------------------------|
    E:------------------7777777777777777-55555555555555555-|
    
    G:------------------|
    D:------------------|x2
    A:------------------|
    E:-3333333333333333-|
    
    Chorus
    G:------------|  |-------------------|  |------------|
    D:-2----------|x3|-------------------|x1|-2----------|x3
    A:---22-44-00-|  |-7~----------------|  |---22-44-00-|
    E:------------|  |----------77777777-|  |------------|
    
    G:-------------------|
    D:-------------------|x1
    A:-7~----------------|
    E:----------77777777-|
    
    Repeat Verse
    
    Repeat Chorus
    
    Bridge
    G:-----------------------------------|
    D:-----------------------------------|x3
    A:-3333333333333333------------------|
    E:------------------5555555555555555-|
    
    G:-----------------------------------|
    D:-----------------------------------|x1
    A:-3333333333333333------------------|
    E:------------------3333333333333333-|
    
    Rest for Guitar solo thing
    
    Repeat Chorus
    
    Outro
    G:-------------------------------------|
    D:-------------------------------------|x1
    A:-55555555-22222222-------------------|
    E:-------------------55555555-33333333-|
    
    G:------------------------------------------------------|
    D:------------------------------------------------------|x1
    A:-55555555-22222222-------------------5~-------------5-|
    E:-------------------55555555-33333333------------------|
Рейтинг: 0 Голосов: 0 Ваша оценка:

© 2012 MuzHub.net

Поддержка: info@muzhub.net. Создание сайта - DesignWebStudio.com.ua