Регистрация

Звезда

  • Автор: Кино
  • Текст песни:
    Музыка и слова - Виктор Цой.
    
    Вступление:
    
       Dm                                  C           Dm                                  C
    e|------------------------------------------------------------------------------------------------|
    H|------------------------------------------------------------------------------------------------|
    G|------------------------------------------------------------------------------------------------|
    D|----7--------------7--------------------------------7--------------7----------------------------|
    A|-5----(5)-5--8-----------5-----------------------5----(5)-5--8-----------5----------------------|
    E|------------------------------------------------------------------------------------------------|
    
       F                                   C           F                                   C
    e|------------------------------------------------------------------------------------------------|
    H|------------------------------------------------------------------------------------------------|
    G|------------------------------------------------------------------------------------------------|
    D|----10-------7-----10-------------------------------10-------7-----10---------------------------|
    A|-8----(8)-8--------------8-----------------------8----(8)-8--------------8----------------------|
    E|------------------------------------------------------------------------------------------------|
    
       Dm                                  C           Dm                                  C
    e|------------------------------------------------------------------------------------------------|
    H|------------------------------------------------------------------------------------------------|
    G|------------------------------------------------------------------------------------------------|
    D|----7--------------7--------------------------------7--------------7----------------------------|
    A|-5----(5)-5--8-----------5-----------------------5----(5)-5--8-----------5----------------------|
    E|------------------------------------------------------------------------------------------------|
    
       F                                   C           F                                   C
    e|------------------------------------------------------------------------------------------------|
    H|------------------------------------------------------------------------------------------------|
    G|------------------------------------------------------------------------------------------------|
    D|----10-------7-----10-------------------------------10-------7-----10-------7--------------7----|
    A|-8----(8)-8--------------8-----------------------8----(8)-8--------------8----(8)-8--10---------|
    E|------------------------------------------------------------------------------------------------|
    
     Dm            C     F
    Волчий вой да лай собак.
      Gm              C       Dm  C
    Крепко, до боли сжатый кулак.
    
    Птицей стучится в жилах кровь.
    Вера да Надежда, Любовь.
    
    «За» голосуют тысячи рук.
    И высок наш флаг.
    
    Синее небо да солнца круг.
    Все на месте, да что-то не так.
    
    	   F               C          Dm   C
    	В небе над нами горит звезда-а.
    	 F              C           Dm   C
    	Некому, кроме нее, нам помо-очь
    	   F               C       Dm    C
    	В темную, темную, темную-у-у - у
    	 F C   Dm
    	Но-о-о-очь.
    
    Проигрыш (сыграть дважды):
    
       Dm                                  C           Dm                                  C
    e|-------------------------5-----------------------------------------------5----------------------|
    H|-------------6--5-----6--------------8-----5-----------------6--5-----6--------------8-----5----|
    G|-7-----------------7-----------------------------7-----------------7----------------------------|
    D|------------------------------------------------------------------------------------------------|
    A|------------------------------------------------------------------------------------------------|
    E|------------------------------------------------------------------------------------------------|
    
       F                                   C           F                                   C
    e|-------------8-----------------------------------------------8----------------------------------|
    H|----------------11-10-8--10----------8--------------------------11-10-8--10----------8----------|
    G|-10----------------------------------------9-----10----------------------------------------9----|
    D|------------------------------------------------------------------------------------------------|
    A|------------------------------------------------------------------------------------------------|
    E|------------------------------------------------------------------------------------------------|
    
    Ночь пришла, а за ней гроза.
    Грустный дождь да ветер-шутник.
    Руки в карманы, вниз глаза.
    Да за зубы язык.
    
    Ох, заедает меня тоска,
    Верная подруга моя.
    Пей да гуляй, пой да танцуй.
    Я с тобой пока.
           
    Припев 2 раза.
    
    Кода = (проигрыш + вступление) 2 раза.
  • Аккорды, присутствующие в подборе:
Рейтинг: 0 Голосов: 0 Ваша оценка:

© 2012 MuzHub.net

Поддержка: info@muzhub.net. Создание сайта - DesignWebStudio.com.ua