Регистрация

Красно-Желтые Дни

  • Автор: Кино
  • Текст песни:
     Перед вступлением:
    D|--------------------3--2-----2-3-2--------|
    A|--0-----0-----3-----------5------------3--|
    E|-----0-----3-----3------------------3-----|
     Вступление+Соло в куплете:
    e|--------------------------------|-----------------0--------------|
    H|-----------------1-----0--------|-----1-----1-----------3-----1--|
    G|----2-----2------------------2--|--0-----0-----0-----0-----0-----|
    D|-2-----2-----2-----2-----2------|--------------------------------|
    A|--------------------------------|--------------------------------|
    E|--------------------------------|--------------------------------|
    e|-----------------5-----3------------8------8~~~~~------------|
    H|-----6-----6---------------------8------8~~~~~~~~-----------|
    G|--5-----5-----5-----5-----5------------------------------------|
    D|-----------------------------------------------------------------|
    A|-----------------------------------------------------------------|
    E|-----------------------------------------------------------------|
     
       Hm                     G
     Застоялся мой поезд в депо.
     A                  G A
     Снова я уезжаю. Пора...
       Hm                        G
     На пороге ветер заждался меня.
     A                           G A
     На пороге осень - моя сестра.
     
              Hm      F#m          Hm
             После красно-желтых дней
               D        A            D
             Начнется и кончится зима.
              G       F#m      Em
             Горе ты мое от ума,
              D              A       D
             Не печалься, гляди веселей.
             И я вернусь домой
             Со щитом, а, может быть, на щите,
             В серебре, а, может быть, в нищете,
             Но как можно скорей.
     
     Расскажи мне о тех, кто устал
     От безжалостных уличных драм
     И о храме из разбитых сердец
     И о тех, кто идет в этот храм.
     
             После красно-желтых дней
             Начнется и кончится зима.
             Горе ты мое от ума,
             Не печалься, гляди веселей.
             И я вернусь домой
             Со щитом, а, может быть, на щите,
             В серебре, а, может быть, в нищете,
             Но как можно скорей.
     
     А мне приснилось: миром правит любовь,
     А мне приснилось: миром правит мечта.
     И над этим прекрасно горит звезда,
     Я проснулся и понял - беда...
     
             После красно-желтых дней
             Начнется и кончится зима.
             Горе ты мое от ума,
             Не печалься, гляди веселей.
             И я вернусь домой
             Со щитом, а, может быть, на щите,
             В серебре, а, может быть, в нищете,
             Но как можно скорей.
    
    
  • Аккорды, присутствующие в подборе:
Рейтинг: 0 Голосов: 0 Ваша оценка:

© 2012 MuzHub.net

Поддержка: info@muzhub.net. Создание сайта - DesignWebStudio.com.ua