Регистрация

Starbucks

  • Автор: A
  • Текст песни:
    -------------------------------------------------------------------------------
    			     A - Starbucks
    -------------------------------------------------------------------------------
    
    Tabbed by: Ste Foy
    Email: Insultme13@hotmail.com
    
    Tuning: Standard tuning (EADGBE)
    
    Im not 100% sure about this, especially the verse but it sounds OK.
    
    There is a little keyboard bit at the start. Then guitar enters with:
    e|---------------------------------------------------------------------------|
    B|---------------------------------------------------------------------------|
    G|-9-------------------------------------------------------------------------|
    D|-9-------------------------------------------------------------------------|
    A|-7-------------------------------------------------------------------------|
    E|--0-0-0-0-0-0-0-0-0-0-0-0-0-0-0-0------------------------------------------|
       PM-------------------------------l   Slowly build up
    
    Intro/Verse (clean)
    e|---12------12-----12-----12---1---12-------12------------------------------|
    B|------11------11------------10-------10------------------------------------|
    G|----------------------------------------------------x2---------------------|
    D|-9-------9------9-----11-------11-------11---------------------------------|
    A|---------------------------------------------------------------------------|
    E|---------------------------------------------------------------------------|
    
    Verse (guitar 2)
    e|---------------------------------------------------------------------------|
    B|--------------------------------6-6-6-6-6-6-6-6-9-9-9-9-9-9-9-9------------|
    G|--------------------------------4-4-4-4-4-4-4-4-7-7-7-7-7-7-7-7------------|
    D|-9-9-9-9-9-9-9-9-----------------------------------------------------------|
    A|-7-7-7-7-7-7-7-7-9-9-9-9-9-9-9-9-------------------------------------------|
    E|-----------------7-7-7-7-7-7-7-7-------------------------------------------|
      Palm mute but put an accent on every 4th note
    
    e|---------------------------------------------------------------------------|
    B|---------------------------------------------------------------------------|
    G|---------------------------------------------------------------------------|
    D|-9-9-9-9-9-9-9-9-----------------7-7-7-7-7-7-7-7-4-4-4-4-4-4-4-4-----------|
    A|-7-7-7-7-7-7-7-7-9-9-9-9-9-9-9-9-5-5-5-5-5-5-5-5-2-2-2-2-2-2-2-2-----------|
    E|-----------------7-7-7-7-7-7-7-7-------------------------------------------|
      Pm------------  pm------------   w/dist
    
    Chorus  w/dist
    e|---------------------------------------------------------------------------|
    B|--------------6-x-x--9-x-x-------------------------------------------------|
    G|-9-x-x--------6-x-x--9-x-x----------------------6-6-6-6-6-6-6-6-9-9-9-9-9-9|
    D|-9-x-x-9-x-x--4-x-x--7-x-x—-x3—-on 4th time play—4-4-4-4-4-4-4-4-7-7-7-7-7-7|
    A|-7-x-x-9-x-x---------------------------------------------------------------|
    E|-------7-x-x---------------------------------------------------------------|
    
    e|---------------------------------------------------------------------------|
    B|---------------------------------------------------------------------------|
    G|-9-x-x----------------2-x-x------------------------------------------------|
    D|-9-x-x--9-x-x--4-x-x--2-x-x-—x4--------------------------------------------|
    A|-7-x-x--9-x-x--4-x-x--0-x-x------------------------------------------------|
    E|--------7-x-x--2-x-x-------------------------------------------------------|
    
    Bridge
    e|-----0----0------------------------0---0---------12--12-12-12--------------|
    B|---0----0----0--4----4---4-------0---0---0--8----10--10-10-10--------------|
    G|-------------------3---3---3-------------------8---------------------------|
    D|-4-----------------------------4-------------------------------------------|
    A|---------------------------------------------------------------------------|
    E|---------------------------------------------------------------------------|
    
    Then verse for 4 bars, then, over it
    e|---------------------------------------------------------------------------|
    B|---------------------------------------------------------------------------|
    G|---------------------------------------------------------------------------|
    D|---------------------------------------------------------------------------|
    A|-3-3-3-3-4-4-4-4-5-5-5-5-7-7-7-7-------------------------------------------|
    E|-1-1-1-1-2-2-2-2-3-3-3-3-5-5-5-5-------------------------------------------|
    
    Chorus  w/dist
    e|---------------------------------------------------------------------------|
    B|--------------6-x-x--9-x-x-------------------------------------------------|
    G|-9-x-x--------6-x-x--9-x-x----------------------6-6-6-6-6-6-6-6-9-9-9-9-9-9|
    D|-9-x-x-9-x-x--4-x-x--7-x-x—-x3—-on 4th time play—4-4-4-4-4-4-4-4-7-7-7-7-7-7|
    A|-7-x-x-9-x-x---------------------------------------------------------------|
    E|-------7-x-x---------------------------------------------------------------|
    
    e|---------------------------------------------------------------------------|
    B|---------------------------------------------------------------------------|
    G|-9-x-x----------------2-x-x------------------------------------------------|
    D|-9-x-x--9-x-x--4-x-x--2-x-x-—x4--------------------------------------------|
    A|-7-x-x--9-x-x--4-x-x--0-x-x------------------------------------------------|
    E|--------7-x-x--2-x-x-------------------------------------------------------|
    
    
    
    Pm------ palm mute
    X - Scratch note – play without pressing down on string
    
    ===============================================================================
Рейтинг: 0 Голосов: 0 Ваша оценка:

© 2012 MuzHub.net

Поддержка: info@muzhub.net. Создание сайта - DesignWebStudio.com.ua