Регистрация

T Shirt Money

  • Автор: A
  • Текст песни:
    A
    nothing single
    T-shirt money
    
    
    tuning ebgdae, chunky distortion
    (number of reps of chords not given, jsut examples)
    
     this is t shirt money the bside for Nothing its wicked,
    there’s a solo in the middle where i just
    mess about with wah and notes from the chords
    intro/verse  repeat part one, then two.
    parts two and three are the chords repeat a bunch of times.
     |-----------------------------------|---------|
     |-----------------------------------|---10----|
     |----7-7--9-9--11-11---12-12-12-12--|----9----|
     |----7-7--9-9--11-11---12-12-12-12--|----7----|
     |----5-5--7-7--9--9----10-10-10-10--|---------|
     |----5-5--7-7--9--9----10-10-10-10--|---------|
    then...
     |----------------------------------------|
     |----------------------------------------|
     |---7-7--9-9-12-12-11-11-11-11-----------|
     |---7-7--9-9-12-12-11-11-11-11----5------|
     |---5-5--7-7-10-10--9--9--9--9----5--X16-|
     |---5-5--7-7-10-10--9--9--9--9----3------|
    
    stuck half up.....
     |-------------------------------------------------|
     |-------------------------------------------------|
     |---9--9--9---------9--9--9-----------------------|
     |---9--9--9--5-5-5--9--9--9--7--7--7--------------|
     |---7--7--7--5-5-5--7--7--7--7--7--7--------------|
     |---0--0--0--3-3-3--0--0--0--5--5--5--------------|
    
    repeat all of this twice, and then there is the solo,
    which is just Wah, with notes from the
    chord progression, but to make it sound
    really good, make the solo your own.
    
    You then have the stuck half up progression for
    aaaaggggeeess, and for the and i dont know what to
    say, i cant change it anyway bit, use the same prog
     for the stuck half up but with a different
    strum pattern. well thats it, have fun.
    
    By [::charlie::]
    punkrockit182@hotmail.com
Рейтинг: 0 Голосов: 0 Ваша оценка:

© 2012 MuzHub.net

Поддержка: info@muzhub.net. Создание сайта - DesignWebStudio.com.ua