Регистрация

Filthy Greedy Guilty

  • Автор: A Global Threat
  • Текст песни:
    TUNE: eBGDAE
                         Listen to the song for strumming 
    I:
    e----4--6--7-----7--6-----7--6-----6--4-------------------
    B------------5--------7--------4--------------------------
    G---------------------------------------------------------4x
    D---------------------------------------------------------
    A---------------------------------------------------------
    E---------------------------------------------------------
    
    e---------------------------------------------------------
    B---------------------------------------------------------
    G----1--3--4-----4--3-----4--3-----3--1-------------------4x
    D-------------2--------4--------1-------------------------
    A---------------------------------------------------------
    E---------------------------------------------------------
    
    V:
    e---------------------------------------------------------
    B---------------------------------------------------------
    G----9---8--------------------11--------------------------4x
    D----9---8---6---8---9---11---11--------------------------
    A----7---6---6---8---9---11---9---------------------------
    E------------4---6---7---9--------------------------------
    
    C:
    e--------------------------------------------------------
    B--------------------------------------------------------
    G-------9------------------------------------------------4x
    D---9---9---6---4---6---4--------------------------------
    A---9---7---6---4---6---4--------------------------------
    E---7-------4---2---4---2--------------------------------
    
    Other Part:
    e--------------------------------------------------------
    B--------------------------------------------------------
    G-------4-------2----------------------------------------2X
    D---6---4---4---2----------------------------------------
    A---6---2---4---0----------------------------------------
    E---4-------2--------------------------------------------
    
    Order:
    
    I
    V
    C
    V
    C
    OP
    V
    C
    
    That’s all.
    Listen to the song for strumming.
    Tabbed By Chaos
  • Аккорды, присутствующие в подборе:
Рейтинг: 0 Голосов: 0 Ваша оценка:

© 2012 MuzHub.net

Поддержка: info@muzhub.net. Создание сайта - DesignWebStudio.com.ua