Регистрация

Прощай Берлин

  • Автор: Би-2
  • Текст песни:
    Вступление:
    
    e|-------10--|-------8/10--8-|-------10--|-------8/10--8-|
    H|----8------|----6-----------|----8------|----6-----------|
    G|-7---------|-5--------------|-7---------|-5--------------|
    
       C               Am        F        Fm
    e|--------------|--7---5--|--------|--------|
    H|-5---8---5--8-|---------|--8---6-|--8---9-|
    
         C       C+7
    В двух шагах от земли
     F     Fm
    Догорали огни
    В двух пустых городах
    В небесах              H|--6-8-9-|
    
     C       E
    Море причин
       Am          F
    Зчем осколки берегут
     C      E
    Выход один
        Am             F        Fm
    Когда по звездам бьет салют
    
       C          E         Am           F
    e|---|------|-7---/10-|-10-8-7-5--|-/10-8-7-5--|
    H|-8-|--5-8-|---------|-----------|------------| > 2 раза
    G|---|------|---------|-----------|------------|
    
    	            C  Am F Fm
    	Прощай берлин...       > 2 раза
    
    
       C               Am        F        Fm
    e|--------------|--7---5--|--------|--------|
    H|-5---8---5--8-|---------|--8---6-|--8---9-|
    G|--------------|---------|--------|--------|
    
       C               Am        F        Fm
    e|--------------|--7---5--|--------|--------|
    H|-5---8---5--8-|---------|--8---6-|--6-8-9-|
    G|--------------|---------|--------|--------|
    
    В двух часах
    Между строк
    Километры дорог
    В двух словах от любви
    Замерли                 H|--6-8-9--9-8-9-8-6-|
    
    Море причин
    Стена рассыплется на части
    Выход один
    Когда весь мир оглох от счастья
    
    	Припев
  • Аккорды, присутствующие в подборе:
Рейтинг: 0 Голосов: 0 Ваша оценка:

© 2012 MuzHub.net

Поддержка: info@muzhub.net. Создание сайта - DesignWebStudio.com.ua