Регистрация

3 Libras

  • Автор: A Perfect Circle
  • Текст песни:
    Author/Artist: A Perfect Cirlcle
    Title: 3 Libra’s
    Album: Mer De Noms
    Transcribed by: Craig Holmes
    Email: ccll@connexus.net.au
    
    ______________________________________________________________________________
    
    I’m pretty sure this is right but if not please e-mail your 
    corrections.
    -POM-
    ______________________________________________________________________________
    
    INTRO - clean.  accoustic
    ----------|----------|----------|----------|
    -0------0-|-0------0-|-0------0-|----0-----|
    ----------|----------|----------|-8------8-|
    ----2-----|----2-----|----2-----|----------|
    -0----0---|-0----0---|-0----0---|-7----7---|
    ----------|----------|----------|----------|
                                                                                  
    ----------|----------|------------|----------|
    -0------0-|-0------0-|-----0------|----0-----|
    ----------|----------|-11------11-|-8------8-|
    ----2-----|----2-----|------------|----------|
    -0----0---|-0----0---|--9----9----|-6----6---|
    ----------|----------|------------|----------|
    
    ----------|----------|----------|----------|
    -0------0-|-0------0-|-0------0-|----0-----|
    ----------|----------|----------|-8------8-|
    ----2-----|----2-----|----2-----|----------|
    -0----0---|-0----0---|-0----0---|-7----7---|
    ----------|----------|----------|----------|
    
    ----------|----------|------------|----------|
    -0------0-|-0------0-|-----0------|----0-----|
    ----------|----------|-11------11-|-8------8-|
    ----2-----|----2-----|------------|----------|
    -0----0---|-0----0---|--9----9----|-6----6---|
    ----------|----------|------------|----------|
    
    ----------|----------|----------|----------|
    ----0-----|----0-----|----0-----|----------|
    -9------9-|-9------9-|-9------9-|-9--------|
    ----------|----------|----------|----------|
    -7----7---|-7----7---|-7----7---|-7--------|
    ----------|----------|----------|----------|
    
                                                                                  
    VERSE -  clean.  acoustic
    ----------|----------|----------|----------|
    -0------0-|-0------0-|----0-----|----0-----|
    ----------|----------|-6------6-|-7------7-|
    ----2-----|----2-----|----------|----------|
    -0----0---|----------|-4----4---|-5----5---|
    ----------|-0----0---|----------|----------|
                                                                                  
    ----------|----------|----------|----------|
    -0------0-|-0------0-|----0-----|----0-----|
    ----------|----------|-6------6-|-7------7-|
    ----2-----|----2-----|----------|----------|
    -0----0---|----------|-4----4---|-5----5---|
    ----------|-0----0---|----------|----------|
    
    ----------|----------|----------|----------|
    -0------0-|-0------0-|----0-----|----0-----|
    ----------|----------|-6------6-|-7------7-|
    ----2-----|----2-----|----------|----------|
    -0----0---|----------|-4----4---|-5----5---|
    ----------|-0----0---|----------|----------|
                                                                                  
    ----------|----------|----------|----------|----------|
    -0------0-|-0------0-|----0-----|----0-----|----0-----|
    ----------|----------|-6------6-|-7------7-|-8------8-|
    ----2-----|----2-----|----------|----------|----------|
    -0----0---|----------|-4----4---|-5----5---|-7----7---|
    ----------|-0----0---|----------|----------|----------|
    
    
    PRE-CHORUS - clean.  accoustic
    ----------|----------|----------|----------|
    -0------0-|-0------0-|-0------0-|----0-----|
    ----------|----------|----------|11-----11-|
    ----2-----|----2-----|----2-----|----------|
    -0----0---|-0----0---|-0----0---|-9----9---|
    ----------|----------|----------|----------|
    
    ----------|----------|----------|----------|
    ----0-----|----0-----|----0-----|----0-----|
    -8------8-|-8------8-|-8------8-|-8------8-|
    ----------|----------|----------|----------|
    -6----6---|-6----6---|-6----6---|-6----6---|
    ----------|----------|----------|----------|
    
    ----------|----------|----------|----------|
    -0------0-|-0------0-|-0------0-|----0-----|
    ----------|----------|----------|11-----11-|
    ----2-----|----2-----|----2-----|----------|
    -0----0---|-0----0---|-0----0---|-9----9---|
    ----------|----------|----------|----------|
    
    ----------|----------|----------|----------|
    ----0-----|----0-----|----0-----|----------|
    -8------8-|-8------8-|-9------9-|-9--------|
    ----------|----------|----------|----------|
    -6----6---|-6----6---|-7----7---|-7--------|
    ----------|----------|----------|----------|
    
    
    VERSE - clean.  accoustic
    ----------|----------|----------|----------|
    -0------0-|-0------0-|----0-----|----0-----|
    ----------|----------|-6------6-|-7------7-|
    ----2-----|----2-----|----------|----------|
    -0----0---|----------|-4----4---|-5----5---|
    ----------|-0----0---|----------|----------|
    
    ----------|----------|----------|----------|
    -0------0-|-0------0-|----0-----|----0-----|
    ----------|----------|-6------6-|-7------7-|
    ----2-----|----2-----|----------|----------|
    -0----0---|----------|-4----4---|-5----5---|
    ----------|-0----0---|----------|----------|
    
    ----------|----------|----------|----------|
    -0------0-|-0------0-|----0-----|----0-----|
    ----------|----------|-6------6-|-7------7-|
    ----2-----|----2-----|----------|----------|
    -0----0---|----------|-4----4---|-5----5---|
    ----------|-0----0---|----------|----------|
    
    ----------|----------|----------|----------|----------|
    -0------0-|-0------0-|----0-----|----0-----|----0-----|
    ----------|----------|-6------6-|-7------7-|-8------8-|
    ----2-----|----2-----|----------|----------|----------|
    -0----0---|----------|-4----4---|-5----5---|-7----7---|
    ----------|-0----0---|----------|----------|----------|
    
    
    PRE-CHORUS - clean.  accoustic
    ----------|----------|----------|----------|
    -0------0-|-0------0-|-0------0-|----0-----|
    ----------|----------|----------|11-----11-|
    ----2-----|----2-----|----2-----|----------|
    -0----0---|-0----0---|-0----0---|-9----9---|
    ----------|----------|----------|----------|
    
    ----------|----------|----------|----------|
    ----0-----|----0-----|----0-----|----0-----|
    -8------8-|-8------8-|-8------8-|-8------8-|
    ----------|----------|----------|----------|
    -6----6---|-6----6---|-6----6---|-6----6---|
    ----------|----------|----------|----------|
    
    ----------|----------|----------|----------|
    -0------0-|-0------0-|-0------0-|----0-----|
    ----------|----------|----------|11-----11-|
    ----2-----|----2-----|----2-----|----------|
    -0----0---|-0----0---|-0----0---|-9----9---|
    ----------|----------|----------|----------|
    
    ----------|----------|----------|----------|
    ----0-----|----0-----|----0-----|----------|
    -8------8-|-8------8-|-9------9-|-9--------|
    ----------|----------|----------|----------|
    -6----6---|-6----6---|-7----7---|-7--------|
    ----------|----------|----------|----------|
    
    
    CHORUS - light distortion
    ------------|-----------|----------|----------|
    ------------|-----------|----------|----------|
    ------------|-----------|5---5-5-5-|----------|
    -2----2-2-2-|2----2-2-2-|5---5-5-5-|3---3-3-3-|
    -2----2-2-2-|2----2-2-2-|3---3-3-3-|3---3-3-3-|
    -0----0-0-0-|0----0-0-0-|----------|1---1-1-1-|
    
    
    BRIDGE - clean.  accoustic
    ----------|----------|----------|----------|
    -0------0-|-0------0-|-0------0-|----0-----|
    ----------|----------|----------|-8------8-|
    ----2-----|----2-----|----2-----|----------|
    -0----0---|-0----0---|-0----0---|-7----7---|
    ----------|----------|----------|----------|
    
    ----------|----------|------------|----------|
    -0------0-|-0------0-|-----0------|----0-----|
    ----------|----------|-11------11-|-8------8-|
    ----2-----|----2-----|------------|----------|
    -0----0---|-0----0---|--9----9----|-6----6---|
    ----------|----------|------------|----------|
    
    ----------|----------|----------|----------|
    -0------0-|-0------0-|-0------0-|----0-----|
    ----------|----------|----------|-8------8-|
    ----2-----|----2-----|----2-----|----------|
    -0----0---|-0----0---|-0----0---|-7----7---|
    ----------|----------|----------|----------|
    
    ----------|----------|------------|----------|
    -0------0-|-0------0-|-----0------|----0-----|
    ----------|----------|-11------11-|-8------8-|
    ----2-----|----2-----|------------|----------|
    -0----0---|-0----0---|--9----9----|-6----6---|
    ----------|----------|------------|----------|
    
    ----------|----------|----------|
    ----0-----|----0-----|----0-----|
    -9------9-|-9------9-|-9------9-|
    ----------|----------|----------|
    -7----7---|-7----7---|-7----7---|
    ----------|----------|----------|
    
    
    BRIDGE - dist.  Drown with delay
    ------------------------------------------------------------------------------
    ------------------------------------------------------------------------------
    ------------------------------------------------------------------------------
    ------------------------------------------------------------------------------
    -2/4--4--4--4-2-------2/4--4/6-------64--42--------2/4--4/6--------6/7--/11
    ------------------------------------------------------------------------------
                                                                                  
    ------------------------------------------------------------------------------
    ------------------------------------------------------------------------------
    -------------------------------------------------2----------------------------
    -/9----------------------------------------------2----------------------------
    ------/7-6------4--42------2/4-2-------0-------0----------------------------
    ------------------------------------------------------------------------------
                                                                              
Рейтинг: 0 Голосов: 0 Ваша оценка:

© 2012 MuzHub.net

Поддержка: info@muzhub.net. Создание сайта - DesignWebStudio.com.ua