Регистрация

3 Libras

  • Автор: A Perfect Circle
  • Текст песни:
    Intro
    G----------------------------------------------------------------------------
    D----------------------------------------------------------------------------
    A-0-0-0-0-0-0-4-4-0-0-0-0-7-7-4-4-0-0-0-0-0-0-4-4-0-0-0-0-7-7-4-4-5-5-5-5-5-5
    E----------------------------------------------------------------------------
    H----------------------------------------------------------------------------
    
    Verse (4x)
    G---------------- |-----
    D----------------.|-----
    A-0-0-----2-2----.|-4-4-
    E-----0-0-----3-3 |-----
    H-----------------------
    
    Chorus1
    G------------------------------------------------------------------------
    D------------------------------------------------------------------------
    A-0-0-0-0-0-0-0h2-4-4-4-4---4-4-4-0-0-0-0-0-0-0h2-4-4-4-4-5-5-5-5--------
    E-----------------------------------------------------------------0~-----
    H-------------------------2----------------------------------------------
    
    Verse
    G---------------- |-----
    D----------------.|-----
    A-0-0-----2-2----.|-4-4-
    E-----0-0-----3-3 |-----
    H-----------------------
    
    Chorus1
    G----------------------------------------------------------------
    D----------------------------------------------------------------
    A-0-0-0-0-0-0-0h2-4-4-4-4---4-4-4-0-0-0-0-0-0-0h2-4-4-4-4-5-5-5-5
    E----------------------------------------------------------------
    H-------------------------2--------------------------------------
    
    Bridge (4x)
    G----------------
    D----------------
    A---------3-3----
    E-0-0-0-0-----1-1
    H----------------
    
    Intro
    G----------------------------------------------------------------------------
    D----------------------------------------------------------------------------
    A-0-0-0-0-0-0-4-4-0-0-0-0-7-7-4-4-0-0-0-0-0-0-4-4-0-0-0-0-----4-4-5-5-5-5-5-5
    E---------------------------------------------------------0-0----------------
    H----------------------------------------------------------------------------
    
    Chorus2
    G----------------------------------------------------------------
    D----------------------------------------------------------------
    A-0-0-0-0-0-0-0h2-4-4-4-4---4-4-4-0-0-0-0-0-0-0h2-4-4-4-4-4-4-4-4
    E----------------------------------------------------------------
    H-------------------------2--------------------------------------
    
    Chorus1
    G----------------------------------------------------------------
    D----------------------------------------------------------------
    A-0-0-0-0-0-0-0h2-4-4-4-4---4-4-4-0-0-0-0-0-0-0h2-4-4-4-4-5~-----
    E----------------------------------------------------------------
    H-------------------------2--------------------------------------
    
    Made by Chonchulio
Рейтинг: 0 Голосов: 0 Ваша оценка:

© 2012 MuzHub.net

Поддержка: info@muzhub.net. Создание сайта - DesignWebStudio.com.ua