Регистрация

3 Libras

  • Автор: A Perfect Circle
  • Текст песни:
    Perfect circle, 3 libras.
     Tabbed by jana javatoast@hotmail.com.
      
    
    perfect circle
    3 libras
    transcribed by jana 
    
    
    TUNING:  Eaegbe  (tune the d string up to an e) 
    
    
    i’m quite sure this is the tuning they use...if you listen to the intro carefully, 
    you can hear the e string being plucked every 2 sec. or so..the only way i figured i could play 
    that was to tune the d up to the e
    (if you thinK you’re going to snap the string, tune everything a step down and put a capo on 
    the second fret)
    
    *****
    INTRO
    *****
    
    e --------------|-repeat 3 times  ---> ---------------|play once
    b -0----------0-|       	       -4----------4--|
    g --------------|		       ---------------|
    e -----0--------|		       ----0----------|	
    a -0-------0----|		       -4-------4-----|
    E --------------|		       ---------------|
    
    
    e --------------|-play twice-->   --------------|once       ---------------|once
    b -0----------0-|		  -7----------7-|	    -4----------4--|
    g --------------|		  --------------|	    ---------------|
    e -----0--------|		  -----0--------|	    ----0----------|	
    a -0-------0----|		  -7-------7----|	    -4-------4-----|
    E --------------|		  --------------|	    ---------------|
    
    play the whole thing again and then
    
    e --------------| repeat 4 times
    b -5----------5-|
    g --------------|
    e -----0--------|
    a -5-------5----|
    E --------------|
    
    
    *****
    VERSE 
    *****
    
       threw                           you      the      obvious...
    e ------------------------------------------------------------------------------repeat 4 times
    b -0-----------0--------0------------0-------2----------2--------3-----------3--
    g ------------------------------------------------------------------------------ 
    e -------0---------------------0------------------0-------------------0---------
    a -0--------0-------------------------------------------------------------------
    E -----------------------0--------0----------2-------2-----------3--------3-----
    
      
    e --------------| once
    b -4----------4-|
    g --------------|
    e -----0--------|
    a -4-------4----|
    E --------------|
    
    
    
       Difficult not to feel dissapointed.....
    
    e --------------|-play 3 times 	----------------|play once   --------------|play 4 times
    b -0----------0-|	-->	--7----------7--|	     -4----------4-|
    g --------------|		----------------|	     --------------|
    e -----0--------|		-----0----------|            ----0---------|
    a -0-------0----|		--7-------7-----|	     --4------4----|
    E --------------|		----------------|	     --------------|
    
    then:
    
    e --------------|-play 3 times 	----------------|play once   --------------|play twice
    b -0----------0-|		--7----------7--|	     -4----------4-|
    g --------------|		----------------|	     --------------|
    e -----0--------|		-----0----------|	     ----0---------|
    a -0-------0----|		--7-------7-----|	     --4------4----|
    E --------------|		----------------|	     --------------|
    
    
    e --------------| repeat twice
    b -5----------5-|
    g --------------|
    e -----0--------|
    a -5-------5----|
    E --------------|
    
    
    
    ******
    CHORUS
    ******
      cause i thew you the obvious
    
               E          B#    F
    e ----------------------------  play 4x
    b ----------------------------
    g ---------1----------5-----2-
    e ---------0----------3-----1-
    a ---------2----------3-----3-
    E ---------0----------0-----1-
    
    
    (feel free to use any other variatios of the e, b# and f chords)
    
    ********************
    play the INTRO again
    ********************
    
    *****
    OUTRO               
    *****
    
    e  -----------------------------------------------------------
    b  -----------------------------------------------------------
    g  -6---6---6---6--4---4---4---4---4---4---4---4---4---4------ 
    e  ----------------------------------------------------------- 
    a  -4---4---4---4--2---2---2---2---2---2---2---2---2---2------
    E  -----------------------------------------------------------
    
    e  -----------------------------------------------------------
    b  -----------------------------------------------------------
    g  6---6---6---6-/-8---8---8---8---8---8---8---8---8---8------ 
    e  ----------------------------------------------------------- 
    a  4---4---4---4-/-6---6---6---6---6---6---6---6---6---6------
    E  -----------------------------------------------------------
    
    
    e  -----------------------------------------------------------
    b  -----------------------------------------------------------
    g  -6-------6--4-------4---4---4---4---4---4---4---4---4----- 
    e  -----------------------------------------------------------
    a  -4-------4--2-------2---2---2---2---2---2---2---2---2-----
    E  ----------------------------------------------------------- 
    
    
    
    e  ----------------------------------------------------------
    b  ----------------------------------------------------------
    g  /6---6---6---6-/-8---8---8---8---8---8---8---8---8---8---- 
    e  ---------------------------------------------------------- 
    a  /4---4---4---4-/-6---6---6---6---6---6---6---6---6---6---- 
    E  ----------------------------------------------------------
    
    
    e  ---------------------------------------------------------
    b  ---------------------------------------------------------
    g  /9---9---9---9-/-13--13--13--13--13--13--13--13--13--13-- 
    e  --------------------------------------------------------- 
    a  /7---7---7---7-/-11--11--11--11--11--11--11--11--11--11-- 
    E  ---------------------------------------------------------
    
    
    e  ---------------------------------------------------------
    b  ---------------------------------------------------------
    g  13-/-16--16--16--16--16--9---9---8---8---8---8---8---8---
    e  --------------------------------------------------------- 
    a  11-/-14--14--14--14--16--7---7---6---6---6---6---6---6--- 
    E  ---------------------------------------------------------
    
    
    
    e  ---------------------------------------------------------
    b  ---------------------------------------------------------
    g  -6-------4---4-------4-4-----4---4---4-4-/-6---6--4---4- 
    e  --------------------------------------------------------- 
    a  -4-------2---2-------2-2-----2---2---2-2-/-4---4--2---2- 
    E  ---------------------------------------------------------
    
    
    e  ---------------------------------------------------------
    b  -----------------------------3---------------------------
    g  -4---4---4---4--2---2---2---2--or-7--------------------- 
    e  -----------------------------2-----5--------------------- 
    a  -2---2---2---2--0---0---0---0-----5--------------------- 
    E  ---------------------------------------------------------
                                  
    the last chord is a b
    not sure where it’s played
    
    
    LYRICS
    
    (intro)
    (verse)
    threw you the obvious 
    and you flew with it on your back
    a name in your recollection down among the millions
    difficult not to feel a little bit disappointed and passed over
    but i look right through see you naked but oblivious 
    
    (pause)
    ...but you don’t see me 
    
    (verse)
    but i threw you the obvious just to see if there was more behind
    the eyes of a fallen angel, eyes of a tragedy 
    here i am expecting just a little bit too much from
    the wounded but i see see through it all see through see you
    
    (chorus)
    cause i threw you the obvious to see what occurs behind
    the eyes of a fallen angel eyes of a tragedy
    
    (intro for the 2nd time)
    oh well 
    oh well 
    apparently nothing 
    apparently nothing at all 
    
    (outro)
    you don’t see me 
    you don’t see me at all 
    you don’t............
    
    **********************************************************************************
    
    so that’s it,  comments/suggestions @ javatoast@hotmail.com
    (the outro is almost identical to the tab by Gaius Oniros, i used part of it from his tab..)
     
    :: Ultimate Guitar Archive :: 
    http://www.ultimate-guitar.com 
    
     
Рейтинг: 0 Голосов: 0 Ваша оценка:

© 2012 MuzHub.net

Поддержка: info@muzhub.net. Создание сайта - DesignWebStudio.com.ua