Регистрация

A Stranger

  • Автор: A Perfect Circle
  • Текст песни:
    Band: A Perfect Circle
    Title: A Stranger
    Album: Thirteenth Step
    Credit goes to Sqweeky
    
    Tuning: Standard with capo on 2nd fret
    
    
    Intro
    |--------0-----------0---0----------0------------0------|
    |----------0-----------0--------------0~-----------0----|
    |-------------------------------------------------------|
    |----2-----------2--------------2------------2----------|
    |------5-----------5-------5------5------------5-----0~-|
    |-0-----------0--------------3------------3-------------|
    
    |--------0---0---------0---0----------0------------0---0---|
    |----------0-------------0--------------0~-----------0-----|
    |----------------------------------------------------------|
    |----2-------------2--------------2------------2-----------|
    |------5-------------5-------5------5------------5-------5-|
    |-0-------------0--------------3------------3--------------|
    
    Verse/Chorus
    |--------0---0---------0---0----------0------------0---0---|
    |----------0-------------0--------------0~-----------0-----|
    |----------------------------------------------------------|
    |----2-------------2--------------2------------2-----------|
    |------5-------------5-------5------5------------5-------5-|
    |-0-------------0--------------3------------3--------------|x12
    
    Interlude
    |--------0---0-----------------------------------------|
    |----------0------------0---0---------0----------------|
    |-------------------------6----------------------------|
    |----2---------------0--------------0------------------|
    |------5-----------4--------------4------5--4-4--------|
    |-0-------------0--------------0----------------5--5-4-|
    
    |---------0---0--------------------------------------------|
    |-----------0---------------0------------0--------------0--|
    |-----------------------6-----6----------------------------|
    |-----2---------------0---0------------0----0-----0---0----|
    |-------5-----------4----------------4----------4---4------|
    |--0-------------0----------------0-----------0------------|
    
    Ending
    |-----------------------------------------------------|
    |-----------------------------------------------------|
    |-----------------------------------------------------|
    |----0-0--0----x-0----0-0-0-0-----0---0------0---0----|
    |-5--5-5--5--5-x-5-5--5-5-5-5-------4---4~-----4---4~-|
    |-0--0-0--0--0-x---0--0-0-0-0--0-----------0----------|x4
Рейтинг: 0 Голосов: 0 Ваша оценка:

© 2012 MuzHub.net

Поддержка: info@muzhub.net. Создание сайта - DesignWebStudio.com.ua