Регистрация

A Stranger

  • Автор: A Perfect Circle
  • Текст песни:
    -------------------------------------------------------------------------------
    			     A Stranger - A Perfect Circle
    -------------------------------------------------------------------------------
    Tabbed by:Alex Radovanovich
    
    Tuning:C# F# B E G# C#
    
    
    
    This is the whole song until the end.
    C#|------------0----------------0-----------------0----------------0------|
    G#|---------10---------------10---10-----------10---------------10---10---|
    E |-------0----------------0---------0-------0----------------0---------0-|
    B |-----7----------------7-----------------7----------------7-------------|
    F#|-0----------------0----------------------------------------------------|
    C#|------------------------------------8----------------8-----------------|
    
    
    
    Bridge
    C#|------------0----------------0-----------------------------------|
    G#|---------10---10-----------7---7-----------5---------------------|
    E |-------0-----------------0-------0-------0-------0---------------|
    B |-----7-----------------4---------------2-------------2-2-0-------|
    F#|-0-----------------0---------------0---------------------------4-|
    C#|-----------------------------------------------------------------|
    
    C#|------------0----------------0-0-----------------------------0-|
    G#|---------10---10-----------7-----7---------5---------------5---|
    E |-------0-----------------0---------------0-------0-------0-----|
    B |-----7-----------------4---------------2-----------2---2-------|
    F#|-0-----------------0---------------0-----------------0---------|
    C#|---------------------------------------------------------------|
    
    
    
    Outro (Shy away...)
    C#|-0-----------------------------------|
    G#|-5-----------------------------------|
    E |-0-----------0---0-----------0---0---|
    B |-2-------------4---4-----------4---4-|
    F#|-0-----------------------------------|
    C#|---------3---------------3-----------|
    
    
    
    | /  slide up
    |   slide down
    | h  hammer-on
    | p  pull-off
    | ~  vibrato
    | +  harmonic
    | x  Mute note
    ===============================================================================
  • Аккорды, присутствующие в подборе:
Рейтинг: 0 Голосов: 0 Ваша оценка:

© 2012 MuzHub.net

Поддержка: info@muzhub.net. Создание сайта - DesignWebStudio.com.ua