Регистрация

Змей

  • Автор: Люмен
  • Текст песни:
    (в оригинале строй гитары на тон ниже)
    
    Вступление и первый куплет (флажолеты):
    
       Em C  D      G                Em C  H7 Em
    e|-----------------|           |--------------|
    H|-5-----7---7-----| > 3 раза  |-5-----7--5---|
    G|----5----5----7--|           |----5---------|
    
       Em      C          D        G
    Давай из бумаги, деревяшек и клея
    Сделаем чудо, сделаем чудо
    Давай соберем воздушного змея
      Em        C        H7    Em
    И улетим отсюда, далеко отсюда
     
    Проигрыш:
    
       C      Am           Em      D          
    e|------|------------|-------|-----------|
    H|------|---8-8-8-7--|-------|-----------|
    G|-9----|------------|-7-----|---7-7-9-7-|
    D|------|------------|-------|-----------|
    
       C      Am           Em      Hm          
    e|------|------------|-------|------|
    H|------|---8-8-8-7--|-------|------|
    G|-9----|------------|-7-----|------|
    D|------|------------|-------|-9----|
    
    Ты знаешь, мне очень обидно - 
    Я знаю ответы, две трети ответов
    И если ты скажешь - конечно давай
    Другие промолвят: Зачем мне все это?
    
    Проигрыш
    
    И все же давай сделаем чудо
    Последнее чудо, нелепое чудо
    Давай на змее улетим в облака
    Непонятно куда, непонятно откуда...
    
       Am                   Hm7                  Am7      D                Em      
    e|----------3--0-----------------5--2-----------------------3p2----------------|
    H|-------1--1----3-3/5--------3--3----5-5/7--------1------3-----3--------------|
    G|-----0----0---------------2----2---------------0------2---------2----------0-|
    D|---2------2-------------4------4-------------2------0-------------0------2---|
    A|-0--------------------2--------------------0---------------------------2-----|
    E|---------------------------------------------------------------------0-------|
    
       Em              Am7                 Hm7                 Am7      Dsus2
    e|-0---2---3---5-----------3--0----------------5--2-----------------------0-|
    H|---0---0---0-----------1-1----3-3/5--------3-3----5-5/7--------1------3---|
    G|---------------------0---0---------------2---2---------------0------2-----|
    D|-------------------2-----2-------------4-----4-------------2------0-------|
    A|-----------------0-------------------2-------------------0----------------|
    E|-0------------------------------------------------------------------------|
    
    Кода = проигрыш
    
  • Аккорды, присутствующие в подборе:
Рейтинг: 0 Голосов: 0 Ваша оценка:

© 2012 MuzHub.net

Поддержка: info@muzhub.net. Создание сайта - DesignWebStudio.com.ua