Регистрация

Родина (Благовестник)

  • Автор: Люмен
  • Текст песни:
    Вступление:
    ------------0---------------------0-3-----------------------------
    ------0-1-3----3-1-0--------0-1-3-----0---------0-1-3--3-1-0------
    -------------------------------------------------------------2-0--
    ------------------------------------------------------------------
    --0-0-------0-----------0-0-------0-------------------------------
    --------------------------------------------3-3--------3----------
    
    ------------0--3-0--
    -----0-1-3-----3-0--
    --------------------
    --------------------
    -0-0--------0-------
    --------------------
    
      Am          Asus2     Am       Asus2
    Растрепались по ветру родные просторы
      G           G       Am      Asus2       
    Забылись в комнате пустые разговоры   
    Рвут горизонты дозоры колоколен
    Они кричат, что этот город болен
    C            Em    Am      F7   
    А мне под ноги рухнул благовестник
    C           Em      Am       Am  G 
    В тюремной робе, с резаным крылом
    Он обещал, что командиры нас не бросят,    
    И освятил последний мой патрон…
      
    
    Растрепались по ветру родные просторы
    А тучи бросили на наше небо шторы
    Стоит коробок серых  мутный город
    И по спине моей крадется мокрый холод
       
    В душе моей завелась обида
    На то, что солнце слишком ярко светит,
    На грязный смрад бетонных издевательств,
    На тех, кто нам за это не ответит
    А солнышко не в чем не виновато,
    Оно горит, пока висит на проводах
    Ему все так давно осточертело
    Но вены вскрыть мешает бледный страх…
    
  • Аккорды, присутствующие в подборе:
Рейтинг: 0 Голосов: 0 Ваша оценка:

© 2012 MuzHub.net

Поддержка: info@muzhub.net. Создание сайта - DesignWebStudio.com.ua