Регистрация

Pillowhead

  • Автор: Failure
  • Текст песни:
    Band:Failure
    Song:Pillowhead
    Album:Fantastic Planet
    Tabbed by: Anki
    
    All strings tuned down a half step (standard failure tuning).
    
    Listen to the cd to get the rythm right throughout the song. 
    
    Intro:
    
    d#-----------------------
    a#-----------------------
    f#-----------------------
    c#-----------------------
    g#-------1-1-0-0----2--2-
    D#-2-2-2---------3--0--0-
    
    
    The verse is just the bass doing the intro pattern with a little more. You can figure it out.
    
    Pre-chorus:
    
    d#--x-x-x-x-x-x-x-x-x-------------
    a#--x-x-x-x-x-x-x-x-x-------------
    f#--x-x-x-x-x-x-x-x-x--4--5--7----
    c#--x-x-x-x-x-x-x-x-x--4--5--7----
    g#--x-x-x-x-x-x-x-x-x--2--3--5----
    D#--x-x-x-x-x-x-x-x-x-------------
    
    Chorus:
    
    d#-------------------------------------------------------------------------
    a#-------------------------------------------------------------------------
    f#-8-8-8-8-8-8-8-8--5-5-5-5-5-5-5-5--9-9-9-9-9-9-9-9-9-9-9-9--10-10-10-10--
    c#-8-8-8-8-8-8-8-8--5-5-5-5-5-5-5-5--9-9-9-9-9-9-9-9-9-9-9-9--10-10-10-10--
    g#-6-6-6-6-6-6-6-6--3-3-3-3-3-3-3-3--7-7-7-7-7-7-7-7-7-7-7-7--8--8--8--8---
    D#-6-6-6-6-6-6-6-6--3-3-3-3-3-3-3-3--7-7-7-7-7-7-7-7-7-7-7-7--8--8--8--8---
    
    Little riff after first chorus.
    ( * = harmonics )
    
    d#--------------------------------------------------------------
    a#-------------7*-7*-------7*-7*-------7*-7*-------7*-7*--------
    f#--9(echo)----------5*-5*-------5*-5*-------5*-5*-------5*-5*--
    c#--------------------------------------------------------------
    g#--------------------------------------------------------------
    D#--------------------------------------------------------------
    
    
    d#--------------------------------------------------------------
    a#-------------7*-7*-------7*-7*-------7*-7*-------7*-7*--------
    f#--4(echo)----------5*-5*-------5*-5*-------5*-5*-------5*-5*--
    c#--------------------------------------------------------------
    g#--------------------------------------------------------------
    D#--------------------------------------------------------------
    
    
    The final chorus ends off with a little variation. actually just leaving out
    the last chord. But it’s easy to figure out if you listen to the cd.
    
    Any comments, send to guitaranki@hotmail.com
    And please rate. even though I’m not sure anyone is ever gonna look at these
    tabs. Failure is the greatest band ever. More failure songs will be added in
    the near future when I get time to tab them out. Anki.
Рейтинг: 0 Голосов: 0 Ваша оценка:

© 2012 MuzHub.net

Поддержка: info@muzhub.net. Создание сайта - DesignWebStudio.com.ua