Регистрация

Something

  • Автор: Failure
  • Текст песни:
    ----------------------------------------------------------------------------
    			     Something - Failure
    ----------------------------------------------------------------------------
    Tabbed by: Anki
    Email: guitaranki@hotmail.com
    
    Tuning: All string half step down (standard failure tuning)
    
    Personally my favourite song off Comfort along with macaque. This is my way of
    playing the song, but I have live video of it, so it’s probably the most exact
    version out there. And it works, because I play it with my band. Listen to the CD
    to get the rhythm right. 
    
    Intro:
    
    d#|------------------------------------------------------------------------|
    A#|--7-----7-----7----7----7------7----9-----9------9----12------12-----12-|
    F#|-----9-----9---------10----10---------10-----10-----------10-----10-----|
    C#|------------------------------------------------------------------------|
    G#|------------------------------------------------------------------------|
    D#|------------------------------------------------------------------------|
    
    Verse (palm mute)
    
    D#|------------------------------------------------------------------------|
    A#|------------------------------------------------------------------------|
    F#|------------------------------------------------------------------------|
    C#|---4-4-4-4--3-3-3-3--6-6-6-6--7-7-7-7-----------------------------------|
    G#|---5-5-5-5--4-4-4-4--4-4-4-4--5-5-5-5-----------------------------------|
    D#|------------------------------------------------------------------------|
    
    Chorus:
    
    d#|------------------------------------------------------------------------|
    A#|------------------------------------------------------------------------|
    F#|---------4----------4-------------4----4--4-----------------------------|
    C#|---------------5--5----------4----4----2--2-----------------------------|
    G#|--2---2--------5--5-------/6---6--6----4--4-----------------------------|
    D#|--4---4--------3--3-----------------------------------------------------|
    
    Bridge:
    
    d#|------------------------------------------------------------------------|
    A#|------------------------------------------------------------------------|
    F#|--8--8--8--8---6--6--6--6--11-11-11-11--10-10-10-10---------------------|
    C#|--6--6--6--6---5--5--5--5---9--9--9--9---9--9--9--9---------------------|
    G#|------------------------------------------------------------------------|
    D#|------------------------------------------------------------------------|
    
    
    
    | /  slide up
    |   slide down
    | h  hammer-on
    | p  pull-off
    | ~  vibrato
    | 
Рейтинг: 0 Голосов: 0 Ваша оценка:

© 2012 MuzHub.net

Поддержка: info@muzhub.net. Создание сайта - DesignWebStudio.com.ua