Регистрация

Undone

  • Автор: Failure
  • Текст песни:
    ----------------------------------------------------------------------------
    			     Undone - Failure
    ----------------------------------------------------------------------------
    Tabbed by: Anki
    Email: guitaranki@hotmail.com
    
    Tuning: All string half step down (standard failure tuning)
    
    A great song off magnified. There’s a music video for this song on the
    internet somewhere. The strumming isn’t exact, so listen to the CD for the rhythm. 
    
    Intro riff:
    
    d#|------7-----7--------------7--------------------------------------------|
    A#|--—-5-----5---5---5------4---4--------5---0-----------------------------|
    F#|--7-----7-------7------7-------4----7---7-------------------------------|
    C#|------------------------------------------------------------------------|
    G#|------------------------------------------------------------------------|
    D#|------------------------------------------------------------------------|
    
    Verse:
    
    d#|------0-------------0---------------0-----------------------------------|
    A#|--—------3-------------3---------------3----------------1--0------------|
    F#|------------0-------------0---------------0----------0------------------|
    C#|------------------------------------------------------------------------|
    G#|--3--------------2------------------------------------------------------|
    D#|--------------------------------3---------------2-----------------------|
    
    Chorus:
    
    d#|------------------------------------------------------------------------|
    A#|------------------------------------------------------------------------|
    F#|--7-7-7-7---7-7-7-7-----------------------------------------------------|
    C#|--7-7-7-7---7-7-7-7---5-5-5-5-5-5-5-5-----------------------------------|
    G#|--5-5-5-5---5-5-5-5---5-5-5-5-5-5-5-5-----------------------------------|
    D#|--0-0-0-0---6-6-6-6---3-3-3-3-3-3-3-3-----------------------------------|
    
    
    
    
    Bridge: First Greg just plays this riff on the bass:
    
    F#|------------------------------------------------------------------------|
    C#|------------------------------------------------------------------------|
    G#|-----7--10--------5--------7-----7/10-10-10----10-----------------------|
    D#|--0---------8--8-----5--5-----5-------------10----10--------------------|
    
    Then Ken kicks in, at first clean, while singing, then distorted.
    
    
    d#|------------------------------------------------------------------------|
    A#|------------------------------------------------------------------------|
    F#|---------------9--9-9---6-6-6-6-6-6-6-6---------------------------------|
    C#|---------------x--x-x---x-x-x-x-x-x-x-x---------------------------------|
    G#|-----7--10-----7--7-7---4-4-4-4-4-4-4-4---------------------------------|
    D#|--0---------8--8--8-8---5-5-5-5-5-5-5-5---------------------------------|
    
    Then it’s the intro riff, and then a verse, and then Ken sings the chorus over
    the verse riff, followed by this:
    
    Outro:
    
    d#|-----7-----7-----------8-----8------------7-----7------------7-----5---5|
    A#|---5-----5---5---5---5-----5---5---5----5-----5---5---5----4---4-----4--|
    F#|-7-----7-------7---7-----7-------7----7-----7-------7----7-------4------|
    C#|------------------------------------------------------------------------|
    G#|------------------------------------------------------------------------|
    D#|------------------------------------------------------------------------|
    
    Finish on:
    
    d#|-7----|
    A#|-5----|
    F#|-7----|
    C#|------|
    G#|------|
    D#|------|
    
    
    | /  slide up
    |   slide down
    | h  hammer-on
    | p  pull-off
    | ~  vibrato
    | 
Рейтинг: 0 Голосов: 0 Ваша оценка:

© 2012 MuzHub.net

Поддержка: info@muzhub.net. Создание сайта - DesignWebStudio.com.ua