Регистрация

Wonderful Life

  • Автор: Failure
  • Текст песни:
    ----------------------------------------------------------------------------
    			     wonderful life - Failure
    ----------------------------------------------------------------------------
    Tabbed by: Anki
    Email: guitaranki@hotmail.com
    
    Tuning: All string half step down (standard failure tuning)
    
    Haven’t realy got much to say, other than the usual stuff. It’s a great 
    Song off magnified. I had a hard time with the chorus so please rate.
    The strumming isn’t exact.
    
    Intro:
                             1)                      2) 
    d#|-------------------      -------------------|     ----13-------13-------|
    A#|-----12----12----12      ----13----13----13-|     -------12-------12----|
    F#|--14----14----14---      -14----14----14----|     -14-------14-------14-|
    C#|-------------------      -------------------|     ----------------------|
    G#|-------------------      -------------------|     ----------------------|
    D#|-------------------      -------------------|     ----------------------|
    
    Verse (listen to the cd for the rhythm) :
    
    d#|------------------------------------------------------------------------|
    A#|------------------------------------------------------------------------|
    F#|------------------------------------------------------------------------|
    C#|--5-5-5-5---5-5-5-5---2-2-2-2---7-7-7-7---------------------------------|
    G#|--5-5-5-5---5-5-5-5---2-2-2-2---7-7-7-7---------------------------------|
    D#|--3-3-3-3---3-3-3-3---0-0-0-0---5-5-5-5---------------------------------|
    
    Pre-chorus:(every chord is struck eight times - muted)
    
    d#|------------------------------------------------------------------------|
    A#|------------------------------------------------------------------------|
    F#|------------------------------------------------------------------------|
    C#|--8---7---5---3---------------------------------------------------------|
    G#|--8---7---5---3---------------------------------------------------------|
    D#|--6---5---3---1---------------------------------------------------------|
    
    Chorus (you gotta listen to the cd too for the rhythm on this one):
    
    d#|---------0--0-0--------0-----------0------------------------------------|
    A#|---------0--0-0--------0--------------0-----0---------------------------|
    F#|--3-3-3--3--3-3--------x-----------------3------------------------------|
    C#|--4-4-4--4--4-4---2-2--2----2--2----------------------------------------|
    G#|--4-4-4--4--4-4---2-2--2—---2--2----------------------------------------|
    D#|--2-2-2--2--2-2---0-0--0----0--0----------------------------------------|
    
    Outro:
    
    d#|------------------------------------------------------------------------|
    A#|------------------------------------------------------------------------|
    F#|--------2---------------------------------------------------------------|
    C#|-----0-----------------3------------------------------------------------|
    G#|--1-----------------5---------------------------------------------------|
    D#|-----------------3------------------------------------------------------|
    
    
    
    
    | /  slide up
    |   slide down
    | h  hammer-on
    | p  pull-off
    | ~  vibrato
    | 
Рейтинг: 0 Голосов: 0 Ваша оценка:

© 2012 MuzHub.net

Поддержка: info@muzhub.net. Создание сайта - DesignWebStudio.com.ua