Регистрация

Judith

  • Автор: A Perfect Circle
  • Текст песни:
    A Perfect Circle
    Song: Judith.
    Album: Mer De Noms.
    
    I think the other versions have a lot of missing notes so here’s my version:
    
    Tuning:
    eb
    Bb 
    Gb 
    Db
    Ab 
    Db
    Simbologia:
    .....  Palm muted
    h hammer
    p pull 
    ’ pulldown (empujar hacia abajo)
    / deslizar(slide)arriba(up)/para abajo(down)
    
    INTRO
    |----------------------------------------------|
    |----------------------------------------------|
    |-57-77--7/57-8/7--57-57-777--17-17-16-----|
    |----------------------------------------------|
    |-35-55--5/25-6/5--35-35-555--15-15-14-----|
    |----------------------------------------------|
    
    |----------------------------------------------|
    |----------------------------------------------|
    |-57-77--7/57-8/7--57-57-777--17-17-16-----|
    |----------------------------------------------|
    |-35-55--5/25-6/5--35-35-555--15-15-14-----|
    |----------------------------------------------|
    
    
    |-------------------------------------|
    |-------------------------------------|
    |-5h777-7-5h7-8p7-5-7-5-7-777-5-------|
    |-------------------------------3-3-3-|
    |-------------------------------------|
    |-------------------------------------|
    
    |------------------------------------------------------|
    |------------------------------------------------------|
    |-5h777-7-5h7-8p7-5-7-5-7-777-5------------------------|
    |------------------------------------------------------|
    |-------------------------------8-8-8-8///////335’’’--|
    |------------------------------------------------------|
    
    Verse
    |-----------------------------------------|
    |-----------------------------------------|
    |-----------------------------------------|
    |-----------------------------------------|
    |--3h5-55-5------------------------333----|
    |-----------5h7-8p7-5h7-5h7-777-5--333----|
                .......................... 
    
    |------------------------------------------|
    |------------------------------------------|
    |------------------------------------------|
    |------------------------------------------|
    |-----------------------------------333----|
    |---5h7-77-7-5h7-8p7-5h7-5h7-777-5--333----|
        ................................... 
    
    |------------------------------------------|
    |------------------------------------------|
    |------------------------------------------|
    |------------------------------------------|
    |-----------------------------------333----|
    |---5h7-77-7-5h7-8p7-5h7-5h7-777-5--333----|
        ................................... 
    
    |------------------------------------------|
    |------------------------------------------|
    |------------------------------------------|
    |-----------------------------------333----|
    |-----------------------------------333----|
    |---5h7-77-7-5h7-8p7-5h7-5h7-777-5--333----|
        .............................. 
    
    |--------------------------------------|
    |--------------------------------------|
    |--------------------------------------|
    |---------------------------------333--|
    |---35-55-5-35-6/5-5-35-555-3--333--|
    |---57-77-7-57-8/7-7-57-777-5--333--|
    
    |--------------------------------------|
    |--------------------------------------|
    |--------------------------------------|
    |---------------------------------333--|
    |---35-55-5-35-6/5-5-35-555-3--333--|
    |---57-77-7-57-8/7-7-57-777-5--333--|
    
    |--------------------------------------|
    |--------------------------------------|
    |--------------------------------------|
    |---------------------------------333--|
    |---35-55-5-35-6/5-5-35-555-3--333--|
    |---57-77-7-57-8/7-7-57-777-5--333--|
    
    |-------------------------------------|
    |-------------------------------------|
    |-------------------------------------|
    |-------------------------------------|
    |-35-55-5-35-6/5-5-35-555-3--------|
    |-57-77-7-57-8/7-7-57-777-5--3-6-0-|
    
    CHORUS:
    
    gtr 1:
    |--------------------------------------|
    |--------------------------------------|
    |--------------------------------------|
    |---------------------------------333--|
    |---35-55-5-35-6/5-5-35-555-3--333--|
    |---57-77-7-57-8/7-7-57-777-5--333--|
    
    gtr 2:
    |--------------------------------------------------------|
    |--------------------------------------------------------|
    |-13-1313-12-1212--7-7787-7--13-1313-12-1212-7-7787-5----|
    |--------------------------------------------------------|
    |-11-1111-10-1010--5-5565-5--11-1111-10-1010-5-5565-3----|
    |--------------------------------------------------------|
    
    |-------------------------|--------------------------------|
    |-------------------------|--------------------------------|
    |-13-1313-12-1212-7-7787-7|57-77-7-57-8/7-57-57-777----|
    |-------------------------|-----------------------------333|
    |-11-1111-10-1010-5-5565-5|35-55-5-35-6/5-35-35-555-333|
    |-------------------------|-----------------------------333|
    
    
    
    eb|////10/15////8/13///// | repeat x 2
    Bb|-------------------------------|
    Gb|-------------------------------|
    
    Then
    
    eb|////10/15////8//17-|
    Bb|---------------------------------|
    Gb|---------------------------------|
    
    gtr 2 
    |--------------------|
    |--------------------|
    |--12-1212--5-55-5/7-|
    |--------------------|
    |--10-1010--3-33-3/5-|
    |--------------------|
    
    gtr 1 y 2
    |--------------------------------------------------|
    |--------------------------------------------------|
    |-1414141414-17-12-121212--11-111111-12-777--|
    |--------------------------------------------------|
    |-1212121212-15-10-101010---9--9-9-9-10-555--|
    |--------------------------------------------------|
    
    
    |---------------------------------------------------|
    |---------------------------------------------------|
    |-1317/16-1616//7-778/7--1317/16-1616//7-778/7--|
    |---------------------------------------------------|
    |-1115/14-1414//5-556/5--1115/14-1414//5-556/5--|
    |---------------------------------------------------|
    
    
    |------------------------------|
    |------------------------------|
    |-13-131312-1212-77787-57/5--|
    |------------------------------|
    |-11-111110-1010-55565-35/3--|
    |------------------------------|
    
    |--8h10-1010-10-8h10////1510-10p8-8p10-101010-8---|
    |---------------------------------------------------10|x2
    |-----------------------------------------------------|
    
    |-7-8~~~-7-8~~~////8-8-8-8-10-------------------|
    |-----------------------------8--------------------|
    |--------------------------------------------------|
    
    |----------------------------------------------|
    |----------------------------------------------|
    |-57-77--7/57-8/7--57-57-777--17-17-16-----|
    |----------------------------------------------|
    |-35-55--5/25-6/5--35-35-555--15-15-14-----|
    |----------------------------------------------|x2
    
    
    |---------------------------------|
    |---------------------------------|
    |---------------------------------|
    |---------------------------------| 
    |3-555-5-3-5-6-5-35-35-555-3-333--|
    |----------------------------333--|
    
    |------------------------------------|
    |------------------------------------|
    |----------------------------5~~~~---|
    |------------------------------------|
    |3-555-5-3-5-6-5-35-35-555-3---------|
    |------------------------------------|
    
    --------------------------------------------------------|
    |--------------------------------------------------------|
    |-13-1313-12-1212--7-7787-7--13-1313-12-1212-7-7787-5----|
    |--------------------------------------------------------|
    |-11-1111-10-1010--5-5565-5--11-1111-10-1010-5-5565-3----|
    |--------------------------------------------------------|
    
    |---------------------------------------------------|
    |---------------------------------------------------|
    |-13-1313-12-1212-7-7787-7-12-1212-11-1111-7-7787-7-|
    |---------------------------------------------------|
    |-11-1111-10-1010-5-5565-5-10-1010--9--9-9-5-5565-5-|
    |---------------------------------------------------|
    
    
    eb|////10/15////8/13///// | repeat x 2
    Bb|-------------------------------|
    Gb|-------------------------------|
    
    Then
    
    eb|////10/15////8//17-|
    Bb|---------------------------------|
    Gb|---------------------------------|
    
    gtr 2 
    |--------------------|
    |--------------------|
    |--12-1212--5-55-5/7-|
    |--------------------|
    |--10-1010--3-33-3/5-|
    |--------------------|
    
    gtr 1 y 2
    |--------------------------------------------------|
    |--------------------------------------------------|
    |-1414141414-17-12-121212--11-111111-12-777--|
    |--------------------------------------------------|
    |-1212121212-15-10-101010---9--9-9-9-10-555--|
    |--------------------------------------------------|
    
    
    |--------------------------------------------------|
    |--------------------------------------------------|
    |-18-18/16-1616--20-21/18--18-18/16--20//13-1313-13/11-1111|
    |----------------------------------------------------------|
    |-16-16/14-1414--18-19/16--16-16/14--18//11-1111-11/9---9-9|
    |--------------------------------------------------|
    
    |--------------------------------------------------|
    |--------------------------------------------------|
    |-18-18/16-1616-20///------12-11/12/7-----------|
    |--------------------------------------------------|
    |-16-18/14-1414-18///------10--9/10/5--------|
    |--------------------------------------------------|
    
    eb|////10/15////8/13///// | repeat x 2
    Bb|-------------------------------|
    Gb|-------------------------------|
    
    Then
    
    eb|////10/15////8//-------------|
    Bb|---------------------------------|
    Gb|---------------------12////////--|
    
    
    Outro:
    |----------------------------------|-then:---------------0-|
    |----------------------------------|--------------------10-|
    |----14---17---12--11-12--7--this--|-14-17-12-11-11-12---0-|
    |----------------------------part--|--------------------12-|
    |----12---15---10---9-10--5---x3---|-12-15-10--9--9-10--13-|
    |----------------------------------|-----------------------|
    
    eso es todo espero no haberlo hecho mas dificil de lo que es
    y esos es todo amigos.
    thats all
  • Аккорды, присутствующие в подборе:
Рейтинг: 0 Голосов: 0 Ваша оценка:

© 2012 MuzHub.net

Поддержка: info@muzhub.net. Создание сайта - DesignWebStudio.com.ua