Регистрация

Rose

  • Автор: A Perfect Circle
  • Текст песни:
    Perfect Circle Rose 
    
    tune down 1/2 step (low to high:  Eb Ab Db Gb) 
    unless specified otherwise, use a gritty sounding distortion 
    
    
    intro/verses 
    |--------------------------------------------|| 
    |--------------------------------------------|| 
    |---7-(7)/10---7-(7)/12--7-(7)/10---/73--|| 
    |-0-----------0----------0-----------0-------|| 
    
    
    (0:19) 
    |-------------------|-----------------------| 
    |-------------------|-----------------------| 
    |-------------------|-----------------------| 
    |-1----1----1----1--|--1----1----1----1---3-| 
    
    
    (1:07) (no distortion) 
    |----------------------|-------------------------|------------|| 
    |----------------------|-------------------------|------------|| 
    |-------7--------------|--------7----------------|------------|| 
    |-0----------0-----/7-|---0---------0----/8-----|------------|| 
    
    
    (1:57) 
    |------------------------|------------------------|-----------------------|-----------------|| 
    |------------------------|------------------------|-----------------------|-----------------|| 
    |-7--7-7-7-10--10-10-10--|-7--7-7-7--12--12-12-12-|-7--7-7-7-10--10-10-10-|-7-7-7-7-3-3-3-3-|| 
    |------------------------|------------------------|-----------------------|-----------------|| 
    
  • Аккорды, присутствующие в подборе:
Рейтинг: 0 Голосов: 0 Ваша оценка:

© 2012 MuzHub.net

Поддержка: info@muzhub.net. Создание сайта - DesignWebStudio.com.ua