The Outsider

  • : A Perfect Circle
  • :
    A Perfect Circle - The Outsider
    
    h = hammer-on
    p = pull-off
    s = slide
    x = muted strings
    m = palm mute
    * = harmonic
    
    Intro/chorus : If anyone can work out that twiddly bit properly let me know!
    
    Eb--------------------------------------------------------------
    Bb--------------------------------------------------------------
    Gb----7---7----7---7------7---7----7----------7---7----7---7----
    Db------7--------7- --------7--------7----------5--------5------
    Ab--5--------5----------5--------5-----0----3--------3-------3--
    Db--------------------------------------------------------------
    
      --------------------------------------------------------------------
      --------------------------------------------------------------------
      ----7---7---------------7---7----7---7-----7---7---8-7-7h8-7h8p8p5--
      ------5-------------------7--------7---------7---7----------------5-
      -------------8s7-5----5--------5---------5--------------------------
      --8--------8--------------------------------------------------------
    
      ------------------------------------------------------
      ------------------------------------3-----------------  
      ----7---7----7---7------4-------7---2-----------------   
      ------5--------5----------5---------0-----------------  
      --3--------3------------------------0-----------------
      ---------------------s5-----5s8-----0-----------------
    
    Verse 1 : Let ring and play Db chord a few more times before the first bridge
    
    Bridge 1 - slight distortion
    
      -------------------------------------------------------------
      -------------------------------------------------------------
      -------------------------------------------------------------
      -------------------------------------------------------------
      -------------5-xx-5--------------5-xx-5--------------5-xx-5--
      -0h3h5-0h3h5---------0h3h5-0h3h5---------0h3h5-0h3h5---------
    
      -----------------------------------------------------------------
      -----------------------------------------------------------------
      -----------------------------------------------------------------
      -----------------------------------------------------------------
      --------------------------------------5-xx-5--------------5-xx-5-
      -0h3h5-0h3h5-0h3h5-0h3p2--0h3h5-0h3h5---------0h3h5-0h3h5--------
    
      ----------------------------------------------
      ----------------------------------------------
      ----------------------------------------------
      ----------------------------------------------
      -------------5-xx-5---------------------------
      -0h3h5-0h3h5----------0h3h5-0h3h5-0h3h5-0h3p2-
    
    Chorus 1 : Play Intro with slight distortion
    
    Verse 2 : Heavily distorted
    
      -----------------------------------------------------------------
      -----------------------------------------------------------------
      -----------------------------------------------------------------
      --00-00-00-00--1-0-00-00-00-00--1-0-00-00-00-00--1-0-3-0-1-0-1-0-
      --00-00-00-00--1-0-00-00-00-00--1-0-00-00-00-00--1-0-3-0-1-0-1-0-
      --00-00-00-00--1-0-00-00-00-00--1-0-00-00-00-00--1-0-3-0-1-0-1-0-
         mm mm mm mm       mm mm mm mm       mm mm mm mm         m   m
    
      -----------------------------------------------------------------
      -----------------------------------------------------------------
      -----------------------------------------------------------------
      --00-00-00-00--1-0-00-00-00-00--1-0-00-00-00-00--1-0-3-0-1-----5-
      --00-00-00-00--1-0-00-00-00-00--1-0-00-00-00-00--1-0-3-0-1-------
      --00-00-00-00--1-0-00-00-00-00--1-0-00-00-00-00--1-0-3-0-1--4----
         mm mm mm mm       mm mm mm mm       mm mm mm mm         m   
    
    Bridge 2 : As bridge 1 but with more distortion
    
    Chorus 2 : One guitar plays Intro with distortion while the other plays....
    
      --------------------------------------------------------
      --------------------------------------------------------
      -7-7-7-77-77--7-7-7-77-77--5-5-5-55-55--3-3-3-33-3-10s9-
      -7-7-7-77-77--7-7-7-77-77--5-5-5-55-55--3-3-3-33-3-10s9-
      -5-5-5-55-55--5-5-5-55-55--3-3-3-33-33--1-1-1-11-1-8 s7-
      --------------------------------------------------------
    
      ------------------------------------------------------------
      ------------------------------------------------------------
      -7-7-7-75-77--5s7-777-710-77--5-555-12-121212---------------
      -7-7-7-75-77--5s7-777-710-77--5-555-12-121212--x-5-5--x-8-8-
      -5-5-5-53-55--3s5-555-58 -55--3-333-10-101010--x-5-5--x-8-8-
      -----------------------------------------------x-5-5--x-8-8-
      
      --------------
      --------------
      --------------
      -0------------
      -0------------
      -0------------
    
    
    Middle 8 : Clean sound again (this has the right notes but not exact timings etc, just adlib)
    
      --------------------------------------------------------
      --------------------------------------------------------
      --------------------------------------------------------
      --------------------------------------------------------
      -9-9-9---7--5-5-5-5---3-3--s6--5--5--5--5---9--9-9---10-
      -0-0-0-0-0--0-0-0----7-7-7-----0-0-0-0-0-0--0-0--0-0-0 -
    
      -----------------------------------------------------------------
      -----------------------------------------------------------------
      ------------------------------------------------11-11-11-11-11-9-
      -----------------------------------------------------------------
      -12--12-12--12--10--10-12-10-9s10--9--9--9--9---9--9--9--9--9--7-
      -0 -0---0 -0----0 -0---0 ----0-----0-0-0-0-0-0--0--0--0--0--0--0-
    
      -------------------------------------------------------
      -------------------------------------------------------
      -7-777-7-777------------7-777-7-777--11-11-11-11-11-12-
      -------------------------------------------------------
      -5-555-5-555---3-3--s6--5-555-5-555--9--9--9--9--9--10-
      -0-000-0-000--7-7-7-----0-000-0-000--0--0--0--0--0--0--
     
      -----------------------------------------------
      -----------------------------------------------
      -14-14-14-14-14-14-14-14--14s17-17-17-17-14-20-
      -----------------------------------------------
      -12-12-12-12-12-12-12-12--12s15-15-15-15-12-18-
      -0--0--0--0--0--0--0--0---0--0--0--0--0--0--0--
    
      -------------------------
      -------------------------
      -19-19-19-19-19-19-19-19-
      -------------------------
      -17-17-17-17-17-17-17-17-
      -0--0--0--0--0--0--0--0--
    
    Bridge 3 : Lots of distortion this time
    
      -------------------------------------------------------------
      -------------------------------------------------------------
      -------------7-xx-7--------------7-xx-7--------------7-xx-7--
      -0h3h5-0h3h5-7-xx-7--0h3h5-0h3h5-7-xx-7--0h3h5-0h3h5-7-xx-7--
      -0h3h5-0h3h5-5-xx-5--0h3h5-0h3h5-5-xx-5--0h3h5-0h3h5-5-xx-5--
      -0h3h5-0h3h5---------0h3h5-0h3h5---------0h3h5-0h3h5---------
    
      -----------------------------------------------------------------
      -----------------------------------------------------------------
      --------------------------------------7-xx-7--------------7-xx-7-
      -0h3h5-0h3h5-0h3h5-0h3p2--0h3h5-0h3h5-7-xx-7--0h3h5-0h3h5-7-xx-7-
      -0h3h5-0h3h5-0h3h5-0h3p2--0h3h5-0h3h5-5-xx-5--0h3h5-0h3h5-5-xx-5-
      -0h3h5-0h3h5-0h3h5-0h3p2--0h3h5-0h3h5---------0h3h5-0h3h5--------
      
      ----------------------------------------------
      ----------------------------------------------
      -------------7-xx-7---------------------------
      -0h3h5-0h3h5-7-xx-7---0h3h5-0h3h5-0h3h5-0h3p2-
      -0h3h5-0h3h5-5-xx-5---0h3h5-0h3h5-0h3h5-0h3p2-
      -0h3h5-0h3h5----------0h3h5-0h3h5-0h3h5-0h3p2-
    
    
    Guitary bit
    
      -------------------------------------------------
      -------------------------------------------------
      -------------------------------------------------
      -7-77-7s10s7-7--5s7-7777-77-77-7--5-55-5-5-5-5-5-
      -5-55-5s8 s5-5--3s5-5555-55-55-5--3-33-3-3-3-3-3-
      -------------------------------------------------
          mm                mmmm    mm       mm   m   m    
    
      -------------------------------------------------------
      -------------------------------------------------------
      -------------------------------------------------------
      -10-10-10-10-10s12-12--7-77-7s10s7-7--5s7-7777-77-77-7-
      -8--8 -8 -8 -8 s10-10--5-55-5s8 s5-5--3s5-5555-55-55-5-
      -------------------------------------------------------
            m m                  mm                mmmm    mm    
    
      -------------------------------
      -------------------------------
      --------------------4-------7--
      -5-55-5-5-5-5-5-------5--------
      -3-33-3-3-3-3-3----------------
      -----------------s5-----5s8----      
          mm   m   m
       
    Last Chorus
    
      --------------------------------------------------------------
      --------------------------------------------------------------
      --------------------------------------------------------------
      ---------10-10s--------10-10s---------10-10s------*5*5*5*5-
      ---------10-10s--------10-10s---------10-10s---------------
      -0-0-0-x-10-10s--0-0-x-10-10s--0-0-x--10-10s--0-0----------
      
      -----------------------------------------------------x-x-x-x--
      -----------------------------------------------------x-x-x-x--
      -----------------------------------------------------x-x-x-x--
      ---------10-10s--------10-10s---------10-10s------x-x-x-x--
      ---------10-10s--------10-10s---------10-10s------x-x-x-x--
      -0-0-0-x-10-10s--0-0-x-10-10s--0-0-x--10-10s--0-0-x-x-x-x--
    
      ----------------------------------------------------------------
      --------------------------------------------8-8-8-8--11-11-11-6-
      -7-7-7-7--10-10-10-5-------------------7----7-7-7-7--10-10-10-5-
      -5-5-5-5--8--8--8--3--0-0-0-10--10-0---7----5-5-5-5--8--8--8--3-
      -5-5-5-5--8--8--8--3--0-0-0-10--10-0---5----5-5-5-5--8--8--8--3-
      -5-5-5-5--8--8--8--3--0-0-0-10--10-0-0---0--5-5-5-5--8--8--8--3-
                                               m
    
      ----------
      ----------
      ----------
      -0--------
      -0--------
      -0--------
                                          
    
                                       THE END
: 0 : 0 :

2012 MuzHub.net

: info@muzhub.net. - DesignWebStudio.com.ua