Регистрация

Lipgloss And Letdown

  • Автор: A Static Lullaby
  • Текст песни:
    A Static Lullaby
    Lipgloss And Letdown
    ...And Don’t Forget To Breathe
    Standard Tuning (EADG)
    Submitted By: Stand Alone (projectwyze13@hotmail.com)
    
    Intro:
    G-----|---------------------------------------------------------
    D-----|---------------------------------------------------------
    A-121|-0-00000------0-00000-3----0-00000-----------------------
    E-----|--------1-1-11-------1--111-------1-1-1-13333333-11-0-000
    
    {0:11}
    G------------------------------------------------
    D------------------------------------------------
    A-0-00000------0-00000-3----0-00000--------------
    E--------1-1-11-------1--111-------1-1-1-13~~~1~~
    
    1st Verse: {0:22}
    G---------------------------------------------------
    D---------------------------------------------------
    A-0000--00-00-3333--33-33-------------0000000~------
    E-------------------------1111--11-11------------023
    
    {0:33}
    G---------------------------------------------------
    D---------------------------------------------------
    A-0000--00-00-3333--33-33-------------00000000000000
    E-------------------------1111--11-11---------------
    
    Bridge {0:43}
    G-------------------------------------------------------------------------
    D-------------------------------------------------------------------------
    A-3333-0000-----------3333-0000-----------3333300000----------3333-0000---
    E-----------1111-1111-----------1111-1111-----------111111111-----------1~
    
    1st Chorus: {1:00}
    G--------------------------------------
    D--------------------------------------
    A-0>>-----3>>-----0>>-----3>>-------81
    E-----1>>-----3>>-----1>>-----1~~1~~---
    
    2nd Verse: {1:21}                              
    G-----------------------------------------222~~|-------2-5-2  
    D----------------------------------------------|----2-3-3---    
    A-0000--00-00-3333--33-33-------------0000-----|0-3---------
    E-------------------------1111--11-11----------|------------
    
    {1:32}
    G------------------00022200002---------------------------------------
    D-------------------------------3-----------------------7--7--7-7777-
    A-0000--00-00-333-----------------3-----------------0000-00-00-0-----
    E------------------------------------11-11--11-11--------------------
    
    {1:43}
    G--------------02-----------------------------------------------
    D-----------------3----------5555-------------------------------
    A-000000000000------0333333--------3333------------000000000000-
    E---------------------------------------111111111---------------
    
    {1:54}
    G-------------02-------------------------------------
    D---------------3-------5555-------------------777777
    A-000000000000---0333333----3333---------000000------
    E-------------------------------111111111------------
    
    2nd Chorus: {2:04} (x2)
    G----------------
    D----------------
    A-0>>-----3>>----
    E-----1>>-----3>>
    
    Breakdown: {2:28}
    G---------------------------------------------------------------------------
    D---------------------------------------------------------------------------
    A--------------------0~~~~~~~~~~~~~~~~--------------------0~~~~~~~~~~~~~~~~~
    E-1~~~~~~~~~~~~~~~~~~-------------------1~~~~~~~~~~~~~~~~~~-----------------
    
    {2:47}
    G---------------------------------------------------------------------------
    D---------------------------------------------------------------------------
    A---------------0-(x16)---------------------------------0-0-0-0-0-0-0-3/12--
    E-1(x16)-----------------------------1-(x16)--------------------------------
    
    3rd Chorus: {3:08}
    G------------------------------------
    D------------------------------------
    A-0>>-----3>>-----0>>-----3>>--------
    E-----1>>-----3>>-----1>>-----3>>3/11
    
    {3:29} (x4)
    G--------
    D--------
    A-----0>>
    E-1>>----
    
    Ending: (4:11)
    G----
    D----
    A-0-0
    E----
Рейтинг: 0 Голосов: 0 Ваша оценка:

© 2012 MuzHub.net

Поддержка: info@muzhub.net. Создание сайта - DesignWebStudio.com.ua