Регистрация

Цыганочка

  • Автор: Народные и застольные песни
  • Текст песни:
    Для двух гитар:
    
       Dm     Am     E      Am        
    E|--5-7-5--5-7-5--7-8-7--5-7-5-|
    H|--6-6-6--5-5-5--5-5-5--5-5-5-|
    G|--7-7-7--5-5-5--7-7-7--5-5-5-|   > 2 раза
    D|-0---------------------------|
    A|--------0-------------0------|
    E|---------------0-------------|
    
       Dm      Am      E       Am      Dm      Am      E      Am
    E|-3-1-3-1-1-0-1-0-0---0------------------------------------|
    H|-------------------3---3-3-1-3-1-1-0-1-0-0---0------------|
    G|-------------------------------------------2---2-2-1--1-2|
    D|-----------------------------------------------------4----|
    A|----------------------------------------------------------|
    E|----------------------------------------------------------|
  • Аккорды, присутствующие в подборе:
Рейтинг: 0 Голосов: 0 Ваша оценка:

© 2012 MuzHub.net

Поддержка: info@muzhub.net. Создание сайта - DesignWebStudio.com.ua