Регистрация

Джульетта

  • Автор: Наутилус Помпилиус
  • Текст песни:
       Вступление
    
    Abm                                     H(?)-don`t remember
     ||-------------0---0-------0---------------------------------------------|
     ||-----------4---4-----4-----4--7-7---7-7---7-7----7-------7-------7-----|
     ||-3^4-----4-------------------------8-----8-----8------4-------4-----4---|
     ||------6----------------------------------------------------------------|
     ||-----------------------------------------------------------------------|
     ||-----------------------------------------------------------------------|
     
                Abm        Вторая (Мажорная) часть.
     ||---------------|  |-----------------------|
     ||-77-5-4---4----|  |------3-4-5-5-0--------|
     ||---------4---4-|  |---3^4-----------------|
     ||---------------|  |-----------------------|
     ||---------------|  |-----------------------|
     ||---------------|  |-----------------------|
     
      For quesions, comments mail dmoroz@cs.msu.su
     
     
            E                              A
             Джульетта лежит на зеленом лугу,
           E7                            A7
             Среди муравьев и среди стрекоз.
           C                                  E
             По бронзовой коже, по нежной траве,
           C7                            E7
             Бежит серебро ее светлых волос.
               C                               G
                 Тонкие пальцы вцепились в цветы
               C7                        E7
                 И цветы поменяли свой цвет.
               C                                   G
                 Расколот, как сердце, на камне горит,
               C                                      E
                 Джульетты пластмассовый красный браслет.
           C                          A
             Отпусти его с миром, скажи ему вслед,
           E7                              A7
             Пусть он с этим проклятьем уйдет.
           C                           E
             Пусть никто никогда не полюбит его,
           C7                       E7
             Пусть он никогда не умрет.
     
              C                          G
             Пусть никто никогда не полюбит его,
           C7                       E
             Пусть он никогда не умрет.
     
             Джульетта лежит на зеленом лугу
             Среди муравьев и среди стрекоз
             Муравьи соберут ее чистую кровь
             А стрекозы возьмут нектар ее слез
     
                 Тонкие пальцы вцепились в цветы
                 И цветы поменяли свой цвет.
                 Расколот, как сердце, на камне горит,
                 Джульетты пластмассовый красный браслет.
     
             Судья, если люди поймают его,
             Ты по книгам его не суди.
             Закрой свои книги - ты в них не найдешь
             Ни одной подходящей строки.
     
             Пусть никто никогда не полюбит его,
             Пусть он никогда не умрет.
    
    
  • Аккорды, присутствующие в подборе:
Рейтинг: 0 Голосов: 0 Ваша оценка:

© 2012 MuzHub.net

Поддержка: info@muzhub.net. Создание сайта - DesignWebStudio.com.ua