Регистрация

100$

  • Автор: Пилот
  • Текст песни:
    Соло для первой гитары:
    
    1|---------------0---------8-7-5-------
    2|-----0-1-3-1-3-----------------5-3-1-
    3|---2---------------------------------
    4|-2-----------------------------------
    5|-------------------------------------
    6|-------------------------------------
    
    1|---------------3-1-0-----8-7-5-------
    2|-----0-1-3-1-3-------1---------5-3-1-
    3|---2---------------------------------
    4|-2-----------------------------------
    5|-------------------------------------
    6|-------------------------------------
    
    Бой для второй гитары:
    
    v x ^x ^v^
    v - удар по струнам сверху-вниз
    ^ - удар в обратную сторону
    x - приглушение звука
    
    Am | F | C | E
    
    Дождик, гад ползучий, мерзкий, доставучий,
    Долбит всю дорогу по мозгам!
    Ночь с мурлом селедки держит нож у глотки,
    Преграждая путь моим стихам!
    
    Боги и кастрюли, звезды и огрызки,
    Ни за что на вас я не сержусь!
    Ни хрена не вижу! Ни черта не слышу!
    Не за что давно, но я держусь!
    
      Если ты еще помнишь меня,
      Если я еще дорог тебе,
      Если ты не совсем ожирел,
      Если ты сейчас на коне,
      Вышли стошку баксов, брат! Оуо...
      Вышли стошку баксов, гад! Оуо... е-е-е...
    
    Дворник выметает все, что не летает,
    Все, о чем не стоит говорить!
    А сирены воют, а старушки лают,
    Старый город продолжает жить!..
    
    Жить и ждать кого-то больше и вкуснее,
    Проще и больнее, чем Иисус...
    Ни шиша не помню, ни во что не верю!
    Не за что давно, но я держусь!
    
      Припев
  • Аккорды, присутствующие в подборе:
Рейтинг: 0 Голосов: 0 Ваша оценка:

© 2012 MuzHub.net

Поддержка: info@muzhub.net. Создание сайта - DesignWebStudio.com.ua