Регистрация

А цыган идет (Мохнатый шмель) (к/ф "Жестокий романс")

  • Автор: Песни из кино и мультфильмов
  • Текст песни:
    Intro:
    	     ! 	     !	   !  	  !     !
    E|-------0---1---0---1--0--1--0---1--0--1-|
    B|-1--3--1---3---2---3--2--3--2---3--2--3-|
    G|-2--4--2---2-------2-----2------2-----2-|
    D|-2--4------0-------0-----0------0-----0-|
    A-----------------------------|
    E-----------------------------|
          !
    E|----0-----------------------------------|
    B|-4--1--3-1---3--1-3-1-3-1---------------|
    G|-4--2--4-2---4--2-4-2-4-2---------------|
    D|-4--2--4-2---4--2-4-2-4-2---------------|
    A-----------------------------|
    E-----------------------------|
    	     !	     !	   !      !     !
    E|-------0---1---0---1--0--1--0---1--0--1-|
    B|-1--3--1---3---2---3--2--3--2---3--2--3-|
    G|-2--4--2---2-------2-----2------2-----2-|
    D|-2--4------0-------0-----0------0-----0-|
    A-----------------------------|
    E-----------------------------|
          !     |Играем средним темпом     |
    E|----1-----------------------------1-----|
    B|-3--3--1--3---1--0----------------------|
    G|-3--3--2-----------2--1-------1---------|
    D|-3--3--2----------------3--2------------|
    A-----------------------------|
    E-----------------------------|
       |Теперь быстро     |
    E|-0-1-0----------------------------------|
    B|-------3-1-0----------------------------|
    G--2-1------------------------|
    D------3-2--------------------|
    A-----------------------------|
    E-----------------------------|
    
    Аккорды к песне:
    Am Dm
    B7 E
    Am Dm
    G C
    
  • Аккорды, присутствующие в подборе:
Рейтинг: 0 Голосов: 0 Ваша оценка:

© 2012 MuzHub.net

Поддержка: info@muzhub.net. Создание сайта - DesignWebStudio.com.ua