Регистрация

Popular

  • Автор: Nada Surf
  • Текст песни:
    Verse/Main Riff:
    E---------------------------------------------------|
    B------0-------0---------0---------0----------------|
    G---------------------------------------------------|
    D---------------------------------------------------|
    A--3-3----3-3-----0-2-2-----2-----------------------|
    E-----------------------------0-0-------------------|
    
    
    E-------------------------------------|
    B------0-----0---------------0--------|
    G-------------------------------------|
    D-------------------------------------|
    A--3-3---3-3---0-2-3-2-0--------------|
    E------------------------00-----------|
    
    Bridge 
    e|------------------------------------| 
    B|------------------------------------| 
    G|------5-------5-------4-------4-----| 
    D|----5---5---5---5---4---4---4---4---| 
    A|--3-------3-------2-------2---------| 
    E|------------------------------------| 
    
    2nd Bridge 
    e|-----------------------------------| 
    B|-----------------------------------| 
    G|------2-------2--------4-------4---| 
    D|----4---4---4---4----4---4---4---4-| 
    A|--3-------3--------2-------2-------| 
    E|-----------------------------------| 
    
    Chorus 
    e|------------------------------------------------------------------| 
    B|------------------------------------------------------------------| 
    G|------------------------------------------------------------------| 
    D|---77777777-55555555-77777777-55555555-33333333-3/101010--101010--| 
    A|---77777777-55555555-77777777-55555555-33333333-3/101010--101010--| 
    E|---55555555-33333333-55555555-33333333-11111111-1/-8-8-8---8-8-8--| 
    
    3rd Bridge 
    e|---------------------------| 
    B|---------------------------| 
    G|--------------------4-4-2--| 
    D|-----5-5-7---5----4--------| 
    A|---3------------2----------| 
    E|---------------------------| 
    
    4th Bridge (very fast): 
    e|------------------------------| 
    B|------------------------------| 
    G|--555555555555--444444444444--| 
    D|--555555555555--444444444444--| 
    A|--333333333333--222222222222--| 
    E|------------------------------|
Рейтинг: 0 Голосов: 0 Ваша оценка:

© 2012 MuzHub.net

Поддержка: info@muzhub.net. Создание сайта - DesignWebStudio.com.ua