Регистрация

Black Sheep

  • Автор: Nerve Agents
  • Текст песни:
    Nerve Agents - Black Sheep
    Submitted By: Kyle
    EMail: GP121234@aol.com
    
    Intro 8x + Verse but Faster 6x
    e-------------------------------------------
    B-------------------------------------------
    G-7-7-7-7---5-5-5-5---4-4-4-----------------
    D-7-7-7-7---5-5-5-5---4-4-4---5-5-5-5-------
    A-5-5-5-5---3-3-3-3---2-2-2---5-5-5-5-------
    E------------------------------------3-3-3-3
    
    Verse Ending (putin some palm mutes)
    e----------
    B----------
    G---------2
    D---------2
    A---------0
    E----------
    Then Verse 4x
    Then Verse Ending 1x
    
    Bridge 4x
    e------------------------------------------------------------------------------
    B------------------------------------------------------------------------------
    G-----------------------5-5-5-5-5-5-5-5---4-4-4-4-4-4-4-4---------------4-4-5-5
    D-7-7-7-7-7-7-7-7---5-5-5-5-5-5-5-5---4-4-4-4-4-4-4-4---5-5-5-5---4-4-5-5------
    A-7-7-7-7-7-7-7-7---3-3-3-3-3-3-3-3---2-2-2-2-2-2-2-2---5-5-5-5---2-2-3-3------
    E-5-5-5-5-5-5-5-5-----------------------------------------------3-3-3-3--------
    Outro is same as Verse
    Have Fun
Рейтинг: 0 Голосов: 0 Ваша оценка:

© 2012 MuzHub.net

Поддержка: info@muzhub.net. Создание сайта - DesignWebStudio.com.ua