Регистрация

Prey

  • Автор: Nerve Agents
  • Текст песни:
    Nerve Agents - Prey
    Submitted By: Kyle
    EMail: GP121234@aol.com
    
    
    h=hold note
    Intro-Verse but faster
    G----------------------
    D----------------------
    A-------------1-1-0-000
    E-1-11-3-3-33----------
    
    Chorus
    G-------------
    D----3-55-3-55
    A-5h----------
    E-------------
    
    Fast Part Towards end
    G-------------------
    D-----------5h-5-3-0
    A-5-77-5-77---------
    E-------------------
    Fun fast song. have fun.
Рейтинг: 0 Голосов: 0 Ваша оценка:

© 2012 MuzHub.net

Поддержка: info@muzhub.net. Создание сайта - DesignWebStudio.com.ua