Регистрация

Seven Tongues Of God

  • Автор: Nevermore
  • Текст песни:
    SEVEN TONGUES OF GOD - transcribed by Tim Calvert
    
    ----------------------------------------------|---------------------------------
    ----------------------------------------------|---------------------------------
    -------------------------0--------------------|---------------------------------
    --5-3---5-----5--------2----5-3---5------5----|---------------------------------
    --3-1---3-4---3-3----2------3-1---3-4----3-3--|-2-2---2-2-2-2--5--2-------------
    --3-1---3-2---3-1--0--------3-1---3-2----3-1--|-0-0---0-0-0-0--3--0-------------
    
    
    
    -------------------------------------------------------------------------------
    -------------------------------------------------------------------------------
    -------------------------------------------------------------------------------
    -----------------------------------7-------------------------------------------
    -2-2-2-2--3-2--2-2-2-2--5----------5--22--2-2-2-2--5-2--2-2-2-2----------------
    -0-0-0-0--1-0--0-0-0-0--3--0-0--/5-5--00--0-0-0-0--3-0--0-0-0-0----------------
    
    
    
    ------------------------------|-------------------------------------------------
    ------------------------------|-------------------------------------------------
    ------------------------------|------5--4-2---------5-4-2-----------------------
    ------------------------------|-------------5-------------5---------------------
    -------5-------------3--------|-2-2------------3-3------------------------------
    -3-3-5---5-3-5-1-1-3---3-1-3--|-0-0------------1-1------------------------------
    
    
    
    -------------------------------------------------------------------------------
    -------------------------------------------------------------------------------
    ----------5-4-2---------5-4-2----------------5-4-2---------5-4-2---------------
    ----------------5-------------5--------------------5-------------5-------------
    -2-2-3-2-----------3-3-----------2-5-3--2-2-----------3-3-----------2-2-3-2----
    -0-0-1-0-----------1-1-----------0-3-1--0-0-----------1-1-----------0-0-1-0----
    
                                       main vocal riff
    ------------------------------------|-----------------------------------
    ------------------------------------|-----------------------------------
    --5-4-2---------5-4-2---------------|-----------------------------------
    --------5-------------5-------------|-----------------------------------
    -----------3-3-----------2-5-5-3-2--|---------------3-------------------
    -----------1-1-----------0-3-2-1-1--|-22-2-2--2-2-2---2-2--2-2-2--------
    
                              A Section (play 4 times)
    ---------------------------|-------------------------------------------
    ---------------------------|-------------------------------------------
    ---------------------------|-------------------------------------------
    ------------------------3--|--3-3-----66-6-----5-5-----8-8-------------
    ------------------------1--|--1-1-4-5-44-4-5-4-3-3-6-7-6-6-7-6-2-5-4---
    -5-3-2--2-2-2--3-5-3-0--1--|--1-1-2-3-44-4-3-2-3-3-4-5-6-6-5-4-0-3-2---
    
    
    CHORUS
    strum                strum
    -------------------------------------------|----------------------------
    -------------------------------------------|----------------------------
    -------0-------0-----------0-------0-------|----------------------------
    ---2-----2---2---2-----1-----1---1---1-----|----------------------------
    --2--2-----2-------2--1--1-----1--------1--|----------------------------
    -0-------------------3---------------------|----------------------------
    
    
    (SOLO) twice            twice
    ----0-------0---------|---------------------------------------------------
    ------3-------3-------|---------------------------------------------------
    --------0-------0---3-|---------------------------------------------------
    --4-------4-------4---|---------------------------------------------------
    --4-------4-----------|---------------------------------------------------
    --2-------2-----------|--2-0-2-3-5-3-2--0-2-3-2-0-2-0-2-3-5-3-2-0-2-1-0---
    
    
    -----------------------------------------------|------------------------
    -----------------------------------------------|------------------------
    -----------------------------------------------|------------------------
    -----------------------------------------------|------------------------
    -------------------------------2-3-2----2------|------------------------
    -2-0-2-3-5-3-2-0-2-3-2-0-2-3-5-------5----5-4--|------------------------
    
    
    -----------------------------------------------------------------------
    -----------------------------------------------------------------------
    -----------------------------------------------------------------------
    -----------------------------------------------------------------------
    -5---------5-----5---------7-8-7-5----------5-----5--------------------
    ----6-6-6-----6-----6-6-6-----------6-66-6-----6-----0-----------------
Рейтинг: 0 Голосов: 0 Ваша оценка:

© 2012 MuzHub.net

Поддержка: info@muzhub.net. Создание сайта - DesignWebStudio.com.ua