Регистрация

Stay On The Phone

  • Автор: New Amsterdams
  • Текст песни:
    #-----------------------------------------------------------------------------#
    #-- File created with Instab - http://www.pconline.com/~smcarey/instab.html --#
    #-----------------------------------------------------------------------------#
    
    Author/Artist: New Amsterdams
    Title: Stay on the Phone
    
    This is a great song with only 2 parts to it from what I can see, I haven’t put
    much idea of timing into the tab but I’m sure you can hear the change of chords.
    It is possible to play this song in standard tuning but this tab is written
    in Eb (Eb, Ab, Db, Gb, Bb, eb).  If you want to play it in standard just move it
    all one fret lower (so a fret 7 becomes fret 6).
    
    |--------------------------------------------10------------------10---------
    |---8-----8-----8-----8-----8-----8---5---8--8---8--10-8---8--8--8---8--10--
    |---7-----7-----7-----7-----7-----7---6---9--9---9--9--9---7--9--9---9--9---
    |---8-----8-----8-----8-----7-----7---7---10-10--10-10-10--8--10-10--10-10--
    |-7-----7-----6-----6-----5-----5-------------------------------------------
    |---------------------------------------------------------------------------
        
    ------------
    -8---8---8--
    -9---7---7--
    -10--7---8--
    -----5---6--
    ------------ Then repeat
    
    This part comes in around 2 minutes through and again later in the song.
    |-7----8-----7----8-----5----------
    |-8----8-----8----8-----5----8--8--
    |-7----9-----7----9-----6----7--7--
    |-9----10----9----10----7----8--8--
    |-7----10----7----10----7----6--7--
    |------8----------8-----5----------
    
    anyway, that’s it, any questions? andrewbiles@hotmail.com
    ________________
    Lyrics:
    
    One waitress 
    Outside of, 
    Phone booth, South Carolina 
    Sits, keeps killing time 
    Rolls her eyes 
    Roll of dimes 
    Speak of this sick surrounding sin 
    Tears me from limb to limb, within 
    I don’t know how to let it go 
    This far away from home 
    
    One word was mistaken 
    Context that it was taken from 
    Write it down 
    Must be sound 
    Must be true 
    I hope you can hear me 
    My only sanctuary asks 
    Why am I here? 
    Why aren’t I home? 
    As the line builds for the phone 
    
    I want it all 
    Work to a fault 
    That breaks us in two 
    And always at play 
    The end of the day 
    I’m alone and so are you 
    
    Old stories 
    Gas stations 
    Repeating conversations 
    Still, I can’t speak long 
    The show has to go on 
    At best I, might question 
    The focus of my attention 
    Though, you know that I could bring it down 
    
    I want it all 
    Work to a fault 
    That breaks us in two 
    And always at play 
    The end of the day 
    I’m alone and so are you 
    
    One waitress, invading 
    But I’m content to make her wait 
    It’s all I have 
    So far from home 
    Oh please stay on the phone
Рейтинг: 0 Голосов: 0 Ваша оценка:

© 2012 MuzHub.net

Поддержка: info@muzhub.net. Создание сайта - DesignWebStudio.com.ua