Регистрация

Anniversary

  • Автор: New Found Glory
  • Текст песни:
    New Found Glory  
    Anniversary
    Over Seas Track
    Standard Tuning
    Tabbed By Mike, NewFoundWeez182@aol.com
    
    Intro
    e------------------------------
    B------------------------------
    G-----------------------6-6-6--
    D-8-8--99-9—-99-9--4-4--6-6-6--(4X)
    A-8-8--99-9—-99-9--4-4--4-4-4--
    E-6-6--77-7—-77-7--2-2---------
    PM     **    **
    
    Verse:
    e--------------
    B--------------
    G--------4~~~--
    D-4~~~---4~~~--
    A-4~~~---2~~~--
    E-2~~~---------
    
    Chorus:
    e-----------------------------|--------------------------------
    B-----------------------------|--------------------------------
    G--------6-6-6----------------|-------6-6-6--------------------
    D-4-4-4--6-6-6--8-8-8--9-9-9--|-4-4-4-6-6-6-8-8-8--99-9--99-9--
    A-4-4-4--4-4-4--8-8-8--9-9-9--|-4-4-4-4-4-4-8-8-8--99-9--99-9--
    E-2-2-2---------6-6-6--7-7-7--|-2-2-2-------6-6-6--77-7--77-7--
    PM                                                 **    **         
    
    Bridge:
    e---------------------------------------------------------
    B---------------------------------------------------------
    G-----------------------------------------4-4-4-4-4--6-6--
    D-4-4--4-4--4-4--4-4--8-8--8-8--8-8--8-8--4-4-4-4-4--6-6--
    A-4-4--4-4--4-4--4-4--8-8--8-8--8-8--8-8--2-2-2-2-2--4-4--
    E-2-2--2-2--2-2--2-2--6-6--6-6--6-6--6-6------------------
    
    e-----------------------------------------------------------
    B-----------------------------------------------------------
    G-----------------------------------------4-4-4-4-4--2-2-2--
    D-4-4--4-4--4-4--4-4--8-8--8-8--8-8--8-8--4-4-4-4-4--2-2-2--
    A-4-4--4-4--4-4--4-4--8-8--8-8--8-8--8-8--2-2-2-2-2--0-0-0--
    E-2-2--2-2--2-2--2-2--6-6--6-6--6-6--6-6--------------------
    
    This is the basis of the song. I haven’t had time to tab the whole entire song
    yet, but it’s commin!
Рейтинг: 0 Голосов: 0 Ваша оценка:

© 2012 MuzHub.net

Поддержка: info@muzhub.net. Создание сайта - DesignWebStudio.com.ua