Регистрация

Dressed To Kill

  • Автор: New Found Glory
  • Текст песни:
    #---------------------------------PLEASE NOTE----------------------------------#
    #This file is the author’s own work and represents their interpretation of the #
    #song. You may only use this file for private study, scholarship, or research. #
    #------------------------------------------------------------------------------#
    
    Title: Dressed To Kill
    Artist: New Found Glory
    Album: New Found Glory
    
    Instrument: 6 String Guitar
    
    Tabbed by:  (Mark Brown   markusbrownus2@hotmail.com)
    
    Tuning: Dropped D (D A D G B E)
    
    This is my improved version from the last tab, and i personalliy thnk it is much better
    and it is in dropped d which is cool.  Hope this helps
    
    Intro Riff
    Gtr 1
    E|----------------||
    B|----------------||
    G|----------------||
    D|-0-0-x-x-2-2----||
    A|-0-0-x-x-2-2----||
    D|-0-0-x-x-2-2----||
    
    Intro Riff
    Gtr 2
    (the best thing 2 do here is bar the 9th fret)
    E|---------12-----10--9||
    B|------10-------------||
    G|--9-9-------9-9------||
    D|---------------------||
    A|---------------------||
    D|---------------------||
    
    Intro
    Gtr 1
    E|--------------------------------------------------------||
    B|--------------------------------------------------------||
    G|--------------------------------------------------------||
    D|-7-7-7--7-7-7--7-7-7--7-7-7--4-4-4--4-4-4--0-0-x-x-2-2--||
    A|-7-7-7--7-7-7--7-7-7--7-7-7--4-4-4--4-4-4--0-0-x-x-2-2--||
    D|-7-7-7--7-7-7--6-6-6--6-6-6--4-4-4--4-4-4--0-0-x-x-2-2--||
    
    Gtrs 1&2 (b4 verse)
    E|----------------||
    B|----------------||
    G|----------------||
    D|----7-----------||
    A|----7-----------||
    D|----7-----------||
    
    Verse
    Gtr 1 & 2
         p.m     p.m     p.m     p.m       p.m   p.m      p.m      p.m
    E|----------------------------------------------------------------------||
    B|----------------------------------------------------------------------||
    G|----------------------------------------------------------------------||
    D|-7--7-7--7--7-7--6--6-6--6--6-6--4--4-4--4--4-4--2--2-2--2-2--2-2--||
    A|-7--7-7--7--7-7--6--6-6--6--6-6--4--4-4--4--4-4--2--2-2--2-2--2-2--||
    D|-7--7-7--7--7-7--6--6-6--6--6-6--4--4-4--4--4-4--2--2-2--2-2--2-2--||
    
          p.m    p.m       p.m                 p.m
    E|------------------------------------------------------||
    B|------------------------------------------------------||
    G|------------------------------------------------------||
    D|-7--7-7--7--7--6--9-9-7--4-/-7--4--2-2-2-2--------||
    A|-7--7-7--7--7--6--9-9-7--4-/-7--4--2-2-2-2--------||
    D|-7--7-7--7--7--6--9-9-7--4-/-7--4--2-2-2-2--------||
    
    E|-------------------------------------------------------||
    B|-------------------------------------------------------||
    G|-------------------------------------------------------||
    D|--7-7-7-7-7-7-7--9-9-9-9-9-9-9--4-4-4-4-4-4-4--2-2-2-2-||
    A|--7-7-7-7-7-7-7--9-9-9-9-9-9-9--4-4-4-4-4-4-4--2-2-2-2-||
    D|--7-7-7-7-7-7-7--9-9-9-9-9-9-9--4-4-4-4-4-4-4--2-2-2-2-||
    
    Pre chorus
    Gtr 1
    E|------0------------------||
    B|------0------------------||
    G|-------------------------||
    D|--0-------4-----2-------||
    A|--0-------4-----2-------||
    D|--0-------4-----2-------||
    
    Bridge
    Gtr 1&2
      let ring----------|
    E|-----------------------------||
    B|-----------------------------||
    G|-----------------------------||
    D|--0---2---4---6--7-----------||
    A|--0---2---4---6--7-----------||
    D|--0---2---4---6--7-----------||
        p.m----------|
    E|------------------------------------------||
    B|------------------------------------------||
    G|------------------------------------------||
    D|-7-7-7-7-7-7-7-7--0-0-0-0-x-x-0-0-0-0-x-x-||
    A|-7-7-7-7-7-7-7-7--0-0-0-0-x-x-0-0-0-0-x-x-||
    D|-7-7-7-7-7-7-7-7--0-0-0-0-x-x-0-0-0-0-x-x-||
    
       p.m--|
    E|------------------||
    B|------------------||
    G|------------------||
    D|--0-0-0--0--------||
    A|--0-0-0--0--------||
    D|--0-0-0--0--------||
    
    Song Order
    Intro riffs
    Intro
    Verse
    Pre chorus
    Chorus (same as intro)
    Bridge
    Chorus
    Bridge
    
  • Аккорды, присутствующие в подборе:
Рейтинг: 0 Голосов: 0 Ваша оценка:

© 2012 MuzHub.net

Поддержка: info@muzhub.net. Создание сайта - DesignWebStudio.com.ua