Регистрация

Glory Of Love

  • Автор: New Found Glory
  • Текст песни:
    This is only the first guitar part, the second guitar plays some octaves that
    are hard to make out and therefore hard to tab, if you try you can figure it out yourself.
    
    * = Palm Mute
    T = Tenth Fret
    
    
    Verse:
    
    |--------------------------------|
    |--------------------------------|
    |5-------------------------------|
    |5---------------5---------------|
    |3---------------5---------------|
    |----------------3---------------|
    
    |--------------------------------|
    |--------------------------------|
    |55--------------55--------------|
    |55------33------55------55555555|
    |33------33------33------55555555|
    |--------11--------------33333333|
    
    |--------------------------------|
    |--------------------------------|
    |55-555-5--------33-333-388-888-8|
    |55-555-533-333-333-333-388-888-8|
    |33-333-333-333-311-111-166-666-6|
    |--------11-111-1----------------|
    
    |--------------------------------|
    |--------------------------------|
    |--------------------------------|
    |66-666-688-888-866-666-688-888-8|
    |66-666-688-888-866-666-688-888-8|
    |44-444-466-666-644-444-466-666-6|
    
    
    
    Chorus:
    
    |--------------------------------|
    |--------------------------------|
    |5-555555--------5-555555--------|
    |5-5555553-3333335-5555555-555555|
    |3-3333333-3333333-3333335-555555|
    |--------1-111111--------3-333333|
    
    |--------------------------------|
    |--------------------------------|
    |5-555555--------7-777777--------|
    |5-5555553-3333337-7777775-555555|
    |3-3333333-3333335-5555555-555555|
    |--------1-111111--------3-333333|
    
    |--------------------------------|
    |--------------------------------|
    |2---2-22277-7-775---5555********|
    |2---2-22277-7-775---555522222222|
    |0---0-00055-5-553---333322222222|
    |------------------------00000000|
    
    |------------------------|
    |------------------------|
    |2-2222227-777777--------|
    |2-2222227-7777775-555555|
    |0-0000005-5555555-555555|
    |----------------3-333333|
    
    |--------------------------------|
    |--------------------------------|
    |55-555-555-555-5--------********|
    |55-555-555-555-533-333-355555555|
    |33-333-333-333-333-333-355555555|
    |----------------11-111-133333333|
    
    
    
    Interlude:
    
    |--------------------------------|
    |--------------------------------|
    |----------------------8---8-88--|
    |3-3--3--6-6--6--8-8---8---8-88--|
    |3-3--3--6-6--6--8-8---6---5-65--|
    |1-1--1--4-4--4--6-6-------------|
    
    |--------------------------------|
    |--------------------------------|
    |--------------------8---T-------|
    |3-3--3--6-6--6--8---8---T---8---|
    |3-3--3--6-6--6--8---6---8---8---|
    |1-1--1--4-4--4--6-----------6---|
    
    |--------------------------------|
    |--------------------------------|
    |--**************--**************|
    |5-555555555555555-55555555555555|
    |5-555555555555555-55555555555555|
    |3-333333333333333-33333333333333|
    
    |--------|
    |--------|
    |5---5--|
    |5---5--|
    |3---3--|
    |--------|
    
    
    
    THE ORDER...
    
    Verse X2
    Chorus
    Verse 
    Chorus
    Interlude
    Sing Chorus While Resting
    Chorus X2
    Fade Out on Chorus
Рейтинг: 0 Голосов: 0 Ваша оценка:

© 2012 MuzHub.net

Поддержка: info@muzhub.net. Создание сайта - DesignWebStudio.com.ua