Регистрация

Head On Collision

  • Автор: New Found Glory
  • Текст песни:
    E---------------------------------------------------
    A-5-4-5-7-5-4-5-4-5-4-5-7-5-4-5-4-0000000-22222222--
    D---------------------------------2222222-44444444--
    G---------------------------------2222222-44444444--
    B---------------------------------------------------
    e---------------------------------------------------
    
    E-555-444-555-444-55-44-00000022222222--------------
    G-xxx-xxx-xxx-xxx-xx-xx-22222244444444-5-4-5-7-5-4-5
    A-777-666-777-666-77-66-22222244444444--------------
    G---------------------------------------------------
    B---------------------------------------------------
    e---------------------------------------------------
    
    E---------------------------------------------------
    A-4-5-5-5-7-5-4-5-4-0-------------------------------
    D-------------------2-------------------------------
    G-------------------2-------------------------------
    B---------------------------------------------------
    e---------------------------------------------------
                        let ring
    
    SOLO
    
    E---------------------------------------------------
    A-------------------77-------55------77-------------
    D-77---7---7-----------7-9-7----6h7-----6h7---------
    G----6---9--6-6h7p6---------------------------------
    B---------------------------------------------------
    e---------------------------------------------------
    
    im sure this is 100% right my friends and i play this song all the time and it sounds right
    and if u have ne corrections email me at sonny012@aol.com
Рейтинг: 0 Голосов: 0 Ваша оценка:

© 2012 MuzHub.net

Поддержка: info@muzhub.net. Создание сайта - DesignWebStudio.com.ua