Регистрация

Heaven Isnt Too Far Away

  • Автор: New Found Glory
  • Текст песни:
    Heaven Isn’t Too Far Away-New Found Glory  
    
    -applause-
    
    
    whats up everybody
    you guys ready to rock
    you guys might know this one
    this songs called heaven
    
    
    verse                
    e|-------------|
    B|-------------|
    G|----3--4--6--|   x2
    D|-4--3--4--6--|
    A|-4--1--2--4--|
    E|-2-----------|
       
    got a picture of your house
    and your standing by the door.
    it’s black and white and faded
    and it’s looking pretty worn.
    see the factory that i worked
    silhouetted in the back.
    the memories are gray,
    but man they’re really coming back.
    
    
    pre-chorus
    e|-------------|
    B|-------------|   x1
    G|-4--6--------|
    D|-4--6--4--4--|
    A|-2--4--4--4--|
    E|-------2--2--|
       
    i don’t need to be the king of the world
    
    
    e|----------------|
    B|----------------|
    G|----6--8--6--4--|  x1
    D|-9--6--8--6--4--|
    A|-9--4--6--4--2--|
    E|-7--------------|
       
    as long as i’m the hero of this little girl.
    
    chorus
    e|----------|
    B|----------|    x3
    G|----6--4--|
    D|-4--6--4--|
    A|-4--4--2--|
    E|-2--------|
    
    heaven isn’t too far away,
    closer to it every day.
    no matter what your friends might say...
    
    verse                 
    e|-------------|
    B|-------------|
    G|----3--4--6--|   x2
    D|-4--3--4--6--|
    A|-4--1--2--4--|
    E|-2-----------|
    
    how i love the way you move
    and the sparkle in your eyes.
    there’s a color deep inside them
    like a blue suburban sky.
    when i come home late at night
    and your in bed asleep,
    i wrap my arms around you
    so i can feel you breathe.
    
    pre-chorus
    e|-------------|
    B|-------------|   x1
    G|-4--6--------|
    D|-4--6--4--4--|
    A|-2--4--4--4--|
    E|-------2--2--|
       
    i don’t need to be a superman.
    
    e|----------------|
    B|----------------|
    G|----6--8--6--4--|  x1
    D|-9--6--8--6--4--|
    A|-9--4--6--4--2--|
    E|-7--------------|
    
    as long as you will always be my biggest fan.
    
    chorus
    e|----------|
    B|----------|
    G|----6--4--|   x3
    D|-4--6--4--|
    A|-4--4--2--|
    E|-2--------|
    
    heaven isn’t too far away,
    closer to it every day.
    no matter what your friends might say...we’ll find a way, silence!!
    
    
    solo-didn’t tab it out sorry
    
    
    verse           
    e|-------------|
    B|-------------|
    G|----3--4--6--|   x2   (slower)
    D|-4--3--4--6--|
    A|-4--1--2--4--|
    E|-2-----------|
    
    now the lights are going out
    along the boulevard.
    the memories come rushing back
    and it makes it pretty hard.
    i’ve got nowhere left to go
    and no one really cares.
    i don’t know what to do
    but i’m never giving up on you.
    
    chorus
    e|----------|
    B|----------|
    G|----8--6--|    x3
    D|-6--8--6--|
    A|-6--6--4--|
    E|-4--------|
    
    heaven isn’t too far away,
    closer to it every day. (oh-oh)
    no matter what your friends say,
    i know we’re gonna find a way.
    
    chorus
    e|-----------|
    B|-----------|
    G|----10--8--|    x4
    D|-8--10--8--|
    A|-8--8---6--|
    E|-6---------|
    
    end on
    e|-----------|
    B|-----------|
    G|---8-------|   
    D|---8-------|
    A|---6-------|
    E|-----------|
    
    
    
    tabbed by joe56, any questions or corrections...e-mail them to
    
    joe56@nbnet.nb.ca
Рейтинг: 0 Голосов: 0 Ваша оценка:

© 2012 MuzHub.net

Поддержка: info@muzhub.net. Создание сайта - DesignWebStudio.com.ua