Регистрация

I Dont Want To Miss A Thing

  • Автор: New Found Glory
  • Текст песни:
    Artist:A New Found Glory
    Song: I Don’t Want To Miss A Thing
    Cd:From your screen to the stereo
    Tabbed By: Zach
    
    Buy the album and learn the songs it will impress all your friends!
    
    intro
    e--------------------------------------------------|
    b--------------------------------------------------|
    g--7~------------2~------9~----5~----7~------------|
    d--7~----5~----2~------9~----5~----7~--------------|
    a--7~----5~----2~------9~----5~----7~--------------|
    e--5~----3~----0~------7~----3~----5~--------------|
    
    melody line
    e--------------------------------------------|
    b--------------------------------------------|
    g--6-6-6-6-6-7-7-7-7-7-9-9-9-9-9-5-5-5-5-5---|
    d--7-7-7-7-7-7-7-7-7-7-9-9-9-9-9-5-5-5-5-5---|
    a--7-7-7-7-7-5-5-5-5-5-7-7-7-7-7-3-3-3-3-3---|
    e--5-5-5-5-5---------------------------------|
    
    chorus and intro are the same but they play this in the song at one time in
    the middle.
    e----------------------------------|
    b----------------------------------|
    g----------------------------------|
    d-2-2222227-7777775-5555559-999999-|
    a-2-2222227-7777775-5555559-999999-|
    e-0-0000005-5555553-3333337-777777-|
Рейтинг: 0 Голосов: 0 Ваша оценка:

© 2012 MuzHub.net

Поддержка: info@muzhub.net. Создание сайта - DesignWebStudio.com.ua