Регистрация

My Heart Will Go On

  • Автор: New Found Glory
  • Текст песни:
    By David Graham
    dj.graham0@talk21.com
    
    
    HEAVY DISTORTION
    
    
     e --------------------------------------------------------
     B ---------------------------12---------------------------
     G --9-11-13-13--11-9-9-11-12----13-11-9-6-4---------------
     D --------------------------------------------------------
     A --------------------------------------------------------
     E --------------------------------------------------------
    
     e --------------------------------------------------------
     B ----------------------12-------------------------------- 
     G --9-11-13-13--11-9-11----13-11-9-6-9--------------------
     D --------------------------------------------------------
     A --------------------------------------------------------
     E --------------------------------------------------------
  • Аккорды, присутствующие в подборе:
Рейтинг: 0 Голосов: 0 Ваша оценка:

© 2012 MuzHub.net

Поддержка: info@muzhub.net. Создание сайта - DesignWebStudio.com.ua