Регистрация

Never-ending Story

  • Автор: New Found Glory
  • Текст песни:
    ------------------------------------------------------------
    NEVER-ENDING STORY - NEW FOUND GLORY
    ------------------------------------------------------------
    
    BY: DEREK
    
    INTRO (PLAY THIS RHYTHM UNTIL SINGING STARTS):
    e |----------------------------------------|
    B |----------------------------------------|
    G |-5-5-5-5--------------------------------|
    D |-5-5-5-5--5-5-5-5--3-3--7-7--5-5-5-5----|
    A |-3-3-3-3--5-5-5-5--3-3--7-7--5-5-5-5----|
    E |----------3-3-3-3--1-1--5-5--3-3-3-3----|
    
    VERSES:
    e |----------------------------------------|
    B |----------------------------------------|
    G |-5-5-5-5--------------------------------|
    D |-5-5-5-5--5-5-5-5--3-3-3-3--7-7--5-5----|
    A |-3-3-3-3--5-5-5-5--3-3-3-3--7-7--5-5----|
    E |----------3-3-3-3--1-1-1-1--5-5--3-3----|
    
    PRE-CHRORUS:
    e |----------------------------------------|
    B |----------------------------------------|
    G |-8-8-8-8-8-8-8-8------------------------|
    D |-8-8-8-8-8-8-8-8--6-6-6-6--8-8-8-8------|
    A |-6-6-6-6-6-6-6-6--6-6-6-6--8-8-8-8------|
    E |------------------4-4-4-4--6-6-6-6------|
    
    e |----------------------------------------|
    B |----------------------------------------|
    G |-8-8-8-8--------------------------------|
    D |-8-8-8-8--10-10-10-10--6-6-6-6--8-8-8-8-|
    A |-6-6-6-6--10-10-10-10--6-6-6-6--8-8-8-8-|
    E |----------8--8--8--8---4-4-4-4--6-6-6-6-|
    
    CHORUS: (SAME AS INTRO)
    
    BRIDGE: (SAME AS PRE-CHORUS)
    
    ANY QUESTIONS, TAKE GUITAR LESSONS
  • Аккорды, присутствующие в подборе:
Рейтинг: 0 Голосов: 0 Ваша оценка:

© 2012 MuzHub.net

Поддержка: info@muzhub.net. Создание сайта - DesignWebStudio.com.ua