Регистрация

Over The Head Below The Knees

  • Автор: New Found Glory
  • Текст песни:
    Okay, this is my first tab, so bear with me here. The song is fairly simple (especially 
    I can figure it out :-P) but still a great NFG song.
    
    Tuning: Drop D (D A D G B e)
    
    
    Intro
    e|----------------------------    ----------------------------|
    B|----------------------------    ----------------------------|
    G|----------------------------    ----------------------------|
    D|--5-5-5-5-5-5-0-0-0-0-0-0--- x4 --0-2-0-2-0-----------------|
    A|--5-5-5-5-5-5-0-0-0-0-0-0---    ----------------------------|
    D|--5-5-5-5-5-5-0-0-0-0-0-0---    ----------------------------|
    [P.M.]. . . . . . . . . . .
    
    
    Chorus - There are 2 ways to play this, I think the second way sounds better, but it is 
    difficult to hit the higher chords on some guitars
    e|-----------------------      ---------------------------------|
    B|-----------------------      ---------------------------------|
    G|-----------------------      ---------------------------------|
    D|--55-0000-11-1111------  OR  --1717-12121212-1313-13131313----| x3
    A|--55-0000-11-1111------      --1717-12121212-1313-13131313----|
    D|--55-0000-11-1111------      --1717-12121212-1313-13131313----|
    
    e|-----------------------      -----------------------------------|
    B|-----------------------      -----------------------------------|
    G|-----------------------      -----------------------------------|
    D|--3-3-3-3-3-3-1-1-1-1-1  OR  --15-15-15-15-15-15-13-13-13-13-13-|
    A|--3-3-3-3-3-3-1-1-1-1-1      --15-15-15-15-15-15-13-13-13-13-13-|
    D|--3-3-3-3-3-3-1-1-1-1-1      --15-15-15-15-15-15-13-13-13-13-13-|
    
    
    Verse/Pre-Chorus
    e|----------------------------    --------------------    ------------|
    B|----------------------------    --------------------    ------------|
    G|----------------------------    --------------------    ------------|
    D|--5-5-5-5-5-5-0-0-0-0-0-0--- x4 --5-5-5-5-0-0-0-0--- x4 -0-2-0-2-0--|
    A|--5-5-5-5-5-5-0-0-0-0-0-0---    --5-5-5-5-0-0-0-0---    ------------|
    D|--5-5-5-5-5-5-0-0-0-0-0-0---    --5-5-5-5-0-0-0-0---    ------------|
    [P.M.]. . . . . . . . . . .
    
    
    Chorus
    e|-----------------------      ---------------------------------|
    B|-----------------------      ---------------------------------|
    G|-----------------------      ---------------------------------|
    D|--55-0000-11-1111------  OR  --1717-12121212-1313-13131313----| x3
    A|--55-0000-11-1111------      --1717-12121212-1313-13131313----|
    D|--55-0000-11-1111------      --1717-12121212-1313-13131313----|
    
    e|-----------------------      -----------------------------------|
    B|-----------------------      -----------------------------------|
    G|-----------------------      -----------------------------------|
    D|--3-3-3-3-3-3-1-1-1-1-1  OR  --15-15-15-15-15-15-13-13-13-13-13-|
    A|--3-3-3-3-3-3-1-1-1-1-1      --15-15-15-15-15-15-13-13-13-13-13-|
    D|--3-3-3-3-3-3-1-1-1-1-1      --15-15-15-15-15-15-13-13-13-13-13-|
    
    
    Verse/Pre-Chorus
    e|----------------------------    --------------------    ------------|
    B|----------------------------    --------------------    ------------|
    G|----------------------------    --------------------    ------------|
    D|--5-5-5-5-5-5-0-0-0-0-0-0--- x4 --5-5-5-5-0-0-0-0--- x4 -0-2-0-2-0--|
    A|--5-5-5-5-5-5-0-0-0-0-0-0---    --5-5-5-5-0-0-0-0---    ------------|
    D|--5-5-5-5-5-5-0-0-0-0-0-0---    --5-5-5-5-0-0-0-0---    ------------|
    [P.M.]. . . . . . . . . . .
    
    
    Chorus
    e|-----------------------      ---------------------------------|
    B|-----------------------      ---------------------------------|
    G|-----------------------      ---------------------------------|
    D|--55-0000-11-1111------  OR  --1717-12121212-1313-13131313----| x3
    A|--55-0000-11-1111------      --1717-12121212-1313-13131313----|
    D|--55-0000-11-1111------      --1717-12121212-1313-13131313----|
    
    e|-----------------------      -----------------------------------|
    B|-----------------------      -----------------------------------|
    G|-----------------------      -----------------------------------|
    D|--3-3-3-3-3-3-1-1-1-1-1  OR  --15-15-15-15-15-15-13-13-13-13-13-|
    A|--3-3-3-3-3-3-1-1-1-1-1      --15-15-15-15-15-15-13-13-13-13-13-|
    D|--3-3-3-3-3-3-1-1-1-1-1      --15-15-15-15-15-15-13-13-13-13-13-|
    
    
    Breakdown
    e|-----------------------------------    ---------------------------|
    B|-----------------------------------    ---------------------------|
    G|--8-7-5-33332355555--8-8-x-8-8-x---    ---------------------------|
    D|--8-7-5-33332355555--8-8-x-8-8-x--- x4 --0-2-0-2-0-2-0-2-0-2-0----|
    A|-----------------------------------    ---------------------------|
    D|-----------------------------------    ---------------------------|
    
    
    Chorus
    e|-----------------------      ---------------------------------|
    B|-----------------------      ---------------------------------|
    G|-----------------------      ---------------------------------|
    D|--55-0000-11-1111------  OR  --1717-12121212-1313-13131313----|
    A|--55-0000-11-1111------      --1717-12121212-1313-13131313----|
    D|--55-0000-11-1111------      --1717-12121212-1313-13131313----|
    
    e|-----------------------      -----------------------------------|
    B|-----------------------      -----------------------------------|
    G|-----------------------      -----------------------------------|
    D|--3-3-3-3-3-3-1-1-1-1-1  OR  --15-15-15-15-15-15-13-13-13-13-13-|
    A|--3-3-3-3-3-3-1-1-1-1-1      --15-15-15-15-15-15-13-13-13-13-13-|
    D|--3-3-3-3-3-3-1-1-1-1-1      --15-15-15-15-15-15-13-13-13-13-13-|
    
    
    Outro
    e|--------------------------------------------------------|
    B|--------------------------------------------------------|
    G|--------------------------------------------------------|
    D|--5-5-5-5-5-5-0-0-0-0-0-0-5-5-5-5-5-5-0-----------------|
    A|--5-5-5-5-5-5-0-0-0-0-0-0-5-5-5-5-5-5-0-(let ring)------|
    D|--5-5-5-5-5-5-0-0-0-0-0-0-5-5-5-5-5-5-0-----------------|
    [P.M.]. . . . . . . . . . . . . . . . .
    
    
    That’s it. Rate it please, and that you for supporting New Found Glory.
  • Аккорды, присутствующие в подборе:
Рейтинг: 0 Голосов: 0 Ваша оценка:

© 2012 MuzHub.net

Поддержка: info@muzhub.net. Создание сайта - DesignWebStudio.com.ua