Регистрация

The Minute I Met You

  • Автор: New Found Glory
  • Текст песни:
    x-palm mute
    s-slide
    h-hammer on
    p-pull off
    
    drop d tunning
    there were no tabs for this song anywhere.i no its probly wrong 
    but its the only one out there so dont complain.if you have any corrections 
    e-mail me at dupre01@aol.com.tom delonge is guitar god.
    
    guitar 1 intro
    e-------------------------------------------------------------------------------
    b-------------------------------------------------------------------------------
    g-------------------------------------------------------------------------------
    d---xx00-77-777s2-00-xx00-------------------------------------------------------
    a---xx00-77-777s2-00-xx00-------------------------------------------------------
    d---xx00-77-777s2-00-xx00-------------------------------------------------------
    
    intro guitar 2
    e-------------------------------------------------------------------------------
    b--------------2----------------------------------------------------------------
    g---4p2----2h4------------------------------------------------------------------
    d-------------------------------------------------------------------------------
    a-------------------------------------------------------------------------------
    d-------------------------------------------------------------------------------
    
    verse
    e-------------------------------------------------------------------------------
    b-------------------------------------------------------------------------------
    g-------------------------------------------------------------------------------
    d---77-777s2-00-00-2s7-77-777s2-00-xx00-----------------------------------------
    a---77-777s2-00-00-2s7-77-777s2-00-xx00-----------------------------------------
    d---77-777s2-00-00-2s7-77-777s2-00-xx00-----------------------------------------
    
    pre-chorus
    e-------------------------------------------------------------------------------
    b-------------------------------------------------------------------------------
    g-------------------------------------------------------------------------------
    d---22-2h4-00-0h2---------------------------------------------------------------
    a---22-2h4-00-0h2---------------------------------------------------------------
    d---22-2h4-00-0h2---------------------------------------------------------------
    
    chorus
    e-------------------------------------------------------------------------------
    b-------------------------------------------------------------------------------
    g-------------------------------------------------------------------------------
    d---7777-0000-4444-2222---------0-----------------------------------------------
    a---7777-0000-4444-2222---------0(hold)-----------------------------------------
    d---7777-0000-4444-2222---------0-----------------------------------------------
    
    im prety sure thats it but its probly not even close to right.there is a lil
    bit stuff that i was to lazzy to put but u can get it on your own.and fa all
    you people that say they dont use drop d watch some of there live stuff.
Рейтинг: 0 Голосов: 0 Ваша оценка:

© 2012 MuzHub.net

Поддержка: info@muzhub.net. Создание сайта - DesignWebStudio.com.ua