Регистрация

Shine

  • Автор: Newsboys
  • Текст песни:
    this was an easy song for me!
    
    INTRO:
    |-------------------------------------------8--------------------------|
    |------------------------------------10--11----------------------------|
    |-----------9--10--12-----10--10-10----------------9--9--9-9-----------|
    |10--10-10------------10-----------------------10------------12-12-10--|
    |----------------------------------------------------------------------|
    |--8---8--8--8---8---8--8---8---8--8---8---8-8---8--8--8--8-8--8--8--8-|
    
       |-------------------------------------------------------------------|>[last time]
    |--|----------------------|--------------------------------------------|
    |--|--------------------:-|--------------------------------------------|
    |--|----------------------|----10--9------7----------------------------|
    |10|-10--10--10--10-12----|-----------10-----8-------------------------|
    |--|--------------------:-|--------------------------------------------|
    |--|8--8---8---8---8--8---|--------------------------------------------|
Рейтинг: 0 Голосов: 0 Ваша оценка:

© 2012 MuzHub.net

Поддержка: info@muzhub.net. Создание сайта - DesignWebStudio.com.ua