Регистрация

Do This Anymore

  • Автор: Nickelback
  • Текст песни:
    Nickelback - Do This Anymore
    Tabbed by Brett Folks
    Tuning-DADGBE
    
    Intro
    E|---------------------------|
    B|---------------------------|
    G|---------------------------|
    D|---------------------------|
    A|---------------------------|
    D|-3-(Let Ring)--------------|
    
    Verse-Left on an eastbound train…
    E|---------------------------|
    B|---------------------------|
    G|---------------------------|
    D|---------------------------|
    A|---------------------------|
    D|-3---6---1---8-------------|
    
    No I don’t, No I don’t, No I don’t
    E|---------------------------|
    B|---------------------------|
    G|-----------------3-3-3-3-3-|
    D|-1-1-1-1-1-1-1-1-3-3-3-3-3-|
    A|-1-1-1-1-1-1-1-1-1-1-1-1-1-|
    D|-1-1-1-1-1-1-1-1-----------|
    PM....................
    
    No, I don’t find faith in your forced feelings…
    E|-----------------------------------------------|
    B|-----------------------------------------------|
    G|-----------------------------------------------|
    D|-5-5--5s1-1-1—-1s6-6-6—-6h8-8-8-8-6h8-8-8-8----|
    A|-5-5--5s1-1-1—-1s6-6-6—-6h8-8-8-8-6h8-8-8-8----|
    D|-5-5--5s1-1-1--1s6-6-6—-6h8-8-8-8-6h8-8-8-8----|
    
    I won’t I don’t I won’t do this anymore
    E|-----------------------------------------------|
    B|-----------------------------------------------|
    G|-----------------------------------------------|
    D|-3-3-x-x-x-x-1-1-x-x-x-x-8-8-8-8----0-3-0-1----|
    A|-3-3-x-x-x-x-1-1-x-x-x-x-6-6-6-6----0-3-0-1----|
    D|-3-3-x-x-x-x-1-1-x-x-x-x-6-6-6-6----0-3-0-1----|
                                        PM..  ..
    I won’t do this anymore whoa…
    E|-------------------------------------|
    B|-------------------------------------|
    G|-----------------3-3-3-3-------------|
    D|-6-6-6-6-1-1-1-1-3-3-3-3-0-1-0-6-----|
    A|-6-6-6-6-1-1-1-1-1-1-1-1-0-1-0-6-----|
    D|-6-6-6-6-1-1-1-1---------0-1-0-6-----| Back to verse
                            PM..   ..
    Solo
    E|----------------------------------|
    B|----------------------------------|
    G|----------------------------------|
    D|-s10--8--13-12--15-13-12-13-------|
    A|----------------------------------|
    D|----------------------------------|
    
    E|----------------------------------|
    B|----------------------------------|
    G|----------------------------------|
    D|-s10-8--13-12-13s15-15s17---------|
    A|----------------------------------|
    D|----------------------------------|
    
    E|------------------------------------------------------------|
    B|-------18b19r18-16--18b19r18-16--18b19r18-16----------------|
    G|-17-15---------------------------------------15-17-15-17-15-|
    D|------------------------------------------------------------|
    A|------------------------------------------------------------|
    D|------------------------------------------------------------|
    
    E|------------------------------------------|
    B|-18b19r18-16—18b19r18-16—18b-(slow bend)--|
    G|------------------------------------------|
    D|------------------------------------------|
    A|------------------------------------------|
    D|------------------------------------------|
    
    After solo-Acoustic
    E|--------------------------------|
    B|--------------------------------|
    G|--------------------------------|
    D|-3--6--1--8--3--6--1------------|
    A|-3--6--1--8--3--6--1------------|
    D|-3--6--1--8--3--6--1------------|
    
    Ending
    E|-------------------------------------------|
    B|-------------------------------------------|
    G|-----------------3-3-3-3-------------------|
    D|-6-6-6-6-1-1-1-1-3-3-3-3-0-3-0-5-----------|
    A|-6-6-6-6-1-1-1-1-1-1-1-1-0-3-0-5-----------|
    D|-6-6-6-6-1-1-1-1---------0-3-0-5-----------|
                            PM..   ..
    Repeat a few times and end on:
    E|----|
    B|----|
    G|-3--|
    D|-3--|
    A|-1--|
    D|----|
Рейтинг: 0 Голосов: 0 Ваша оценка:

© 2012 MuzHub.net

Поддержка: info@muzhub.net. Создание сайта - DesignWebStudio.com.ua