Регистрация

Feelin Way Too Damn Good

  • Автор: Nickelback
  • Текст песни:
    Feeling way too damn good
    Nickelback
    Tabber- jackochad
    E-mail- stevejackson42@hotmail.com
    This is in drop D!
    
    Intro
    E--------------------------------------
    B--------------------------------------
    G--------------------------------------
    D-------0-----0-------0------0------- (x2)
    A-------9-----9------10-----10------
    D-------0-----10------9------8-------
            x2     x2     x2     x4
    Verse 1
    Missed u so much…
    E--------------------------------------
    B--------------------------------------
    G--------------------------------------
    D-------0-----0-------0------0------- (x2)
    A-------9-----9------10-----10------
    D-------0-----10------9------8-------
            x2    x2      x2     x4
    But now that you’re here…..
    
    E-------8-----10--------5-----------3-------5-----
    B-------8-----10--------5-----------3-------5-----
    G-------8-----10--------5-----------3-------5-----
    D-------8-----10--------5-----------3-------5-----
    A-------8-----10--------5-----------3-------5-----
    D-------8-----10--------5-----------3-------5-----
            X2      x2
    Verse 2
    E--------------------------------------
    B--------------------------------------
    G--------------------------------------
    D-------0-----0-------0------0------- (x4)
    A-------9-----9------10-----10------
    D-------0-----10------9------8-------
    	X2     x2     x2     x4
    
    We ought to make love…..
    E-------8-----10--------5-----------3-------5-----------
    B-------8-----10--------5-----------3-------5-----------
    G-------8-----10--------5-----------3-------5-----------
    D-------8-----10--------5-----------3-------5----------0
    A-------8-----10--------5-----------3-------5----------9   hit hard to lead
    D-------8-----10--------5-----------3-------5----------0    into chorus
            x2     x2
    Chorus
    And its like…..
    E--------------3-------------5-----3-----5--------
    B--------------3-------------5-----3-----5--------
    G-------3------3------5------5-----3-----5--------
    D-------3------3------5------5-----3-----5-----0--
    A-------1------3------3------5-----3-----5-----9--
    D-------0------3------0------5-----3-----5-----0--
           X2     x2     x2     x2    x2     x2   x6
    
    
    E--------------3-------------5-----3-----5----------------------------
    B--------------3-------------5-----3-----5----------------------------
    G-------3------3------5------5-----3-----5----------------------------
    D-------3------3------5------5-----3-----5-----0------0-----0-----0
    A-------1------3------3------5-----3-----5-----9------9-----10---10
    D-------0------3------0------5-----3-----5-----0-----10------9----8
           X2     x2     x2     x2     x2    x2   x2     x2     x2    x4
    
    That’s it for now. Enjoy
    Please rate this tab.
Рейтинг: 0 Голосов: 0 Ваша оценка:

© 2012 MuzHub.net

Поддержка: info@muzhub.net. Создание сайта - DesignWebStudio.com.ua