Регистрация

Flat On The Floor

  • Автор: Nickelback
  • Текст песни:
    Alright so, Drop D tuning, and the song is pretty quick paced so ya once you figure out 
    rhythm it should be fairly easy.
    
    intro/chorus
    G-----------------------------------------------------|
    D-----------------------------------------------------|
    A-----3----------------------3------------------------|
    D--00--0-33-0-3-55-356535-00--0-33-0-3-555-33---------|
    
    verse
    G-----------------------------------------------------|
    D-----------------------------------------------------|
    A--------------3--------------------------------------|
    D--00-0-00-000--3-------------------------------------|
    
    bridge
    G-----------------------------------------------------|
    D-----------------------------------------------------|
    A-------3-----3----3---3------------------------------|
    D---000--0-00--000---3--------------------------------|
    
    Note
    At a  minute and 23 seconds in it sounds like its goin into the verse but then it stops 
    skips to the end of the verse then repeats and plays through, just listen to it and 
    know what i mean.
    
    Please send me feedback cuz id love to know someone enjoyed the tab.
    
    Kurt
Рейтинг: 0 Голосов: 0 Ваша оценка:

© 2012 MuzHub.net

Поддержка: info@muzhub.net. Создание сайта - DesignWebStudio.com.ua