Регистрация

Flat On The Floor

  • Автор: Nickelback
  • Текст песни:
    Song: Flat ob The Floor
    Band: Nickelback
    Album: The Long Road
    Tuning: Drop C (CGCFAD
     
    Intro (main riff)(00:00)
                     fig 1 (a)                      fig 1 (b)
    D|-----|---------------------------------|---------------------------------
    A|-----|---------------------------------|---------------------------------
    F|-----|---------------------------------|---------------------------------
    C|-----|-2-2-0-2-5-5-2-5-7-7-5-7-8-7-5-7-|-2-2-0-2-5-5-2-5-7-7-5-0---0-0-5-
    G|-----|-2-2-0-2-5-5-2-5-7-7-5-7-8-7-5-7-|-2-2-0-2-5-5-2-5-7-7-5-0---0-0-5-
    C|-15-|-2-2-0-2-5-5-2-5-7-7-5-7-8-7-5-7-|-2-2-0-2-5-5-2-5-7-7-5-0---0-0-5-
    
    repeat 2x
    
    Verse (’not like i needed to depend upon anyone’) (00:11)
    
    D|-------------------------------
    A|-------------------------------
    F|-------------------------------
    C|-2-2---2--2-2---2-2-2---0--5-7-
    G|-2-2---2--2-2---2-2-2---0--5-7-
    C|-2-2---2--2-2---2-2-2---0--5-7-
    
    repeat 2x
    
    after verse play main riff 2x. then back to verse riff and play another 2x.
    then back to main riff and play 2x.
    
    
    Bridge (00:54)
            
    D|-----------------------------------------------
    A|-------3-3-3--------3-3-3--------3-3-3---------
    F|-----------------------------------------------
    C|-0-2-2-------0--2-2-------0--2-2-------5-5-5-0-
    G|-0-2-2-------0--2-2-------0--2-2-------5-5-5-0-
    C|-0-2-2-------0--2-2-------0--2-2-------5-5-5-0-
      
    repeat 2x
    
    
       fig 1  fig 1b
    D|--12--|-------
    A|------|-------
    F|------|-------
    C|------|-------
    G|------|-------
    C|------|-2> fast repeat until chorus begins
  • Аккорды, присутствующие в подборе:
Рейтинг: 0 Голосов: 0 Ваша оценка:

© 2012 MuzHub.net

Поддержка: info@muzhub.net. Создание сайта - DesignWebStudio.com.ua