Регистрация

Hero

  • Автор: Nickelback
  • Текст песни:
    Tabbed By: jjelectrix
    e-mail: jjpitcher@attbi.com
    
    Verse 1
    e |---------------------------------------|
    B |---------------------------------------|
    G |---------------------------------------|
    D |--6---6---6---6---2---2---2---2--(X2)--|
    A |--6---6---6---6---2---2---2---2--------|
    e |--4---4---4---4---0---0---0---0--------|
    
    e |-------------------------------|
    B |-------------------------------|
    G |-------------------------------|
    D |--5-5-555--777777--22222222----|
    A |--5-5-555--777777--22222222----|
    e |--3-3-333--555555--00000000----|
    
    Chorus
    e |-------------------------------|
    B |-------------------------------|
    G |-------------------------------|
    D |--555555--777777--99999999-77--|
    A |--555555--777777--99999999-77--|
    e |--333333--555555--77777777-55--|
    
    e |-------------------------------|
    B |-------------------------------|
    G |-------------------------------|
    D |--555555--777777--22222222-----|
    A |--555555--777777--22222222-----|
    e |--333333--555555--00000000-----|
    
    Then play Verse 1 again.
    Play Chorus again, then:
    
    Solo
    e |--------------------------------------------|
    B |--------------------------------------------|
    G |--------------------------------------------|
    D |--------------------------------------------|
    A |--5p4-5p4-5p4--2—5p4-5p4-5p4--0----2----4---|
    e |--------------------------------------------|
    
    e |----------------------------------------------|
    B |----------------------------------------------|
    G |----------------------------------------------|
    D |--4p2-4p2-4p2--0-4p2-4p2-4p2---------0---2--4-|
    A |------------------------------4----2----------|
    e |----------------------------------------------|
    
    Verse 2
    e |--5----------5--------7--------9------------|
    B |--------------------9------------7----------|
    G |-----------7-------9---------------7--------|
    D |----5---5--------9-------------------8------|
    A |------5--------7-----------------------9----|
    e |--------------------------------------------|
    
    e |---9----------------5---------7---|
    B |----7-----------------------9-----|
    G |-----7-----------7---------9------|
    D |------8----5---5---------9--------|
    A |-------9-----5---------7----------|
    e |----------------------------------|
    
    Then play pickups:
    
    e |-----------------------|
    B |-----------------------|
    G |-----------------------|
    D |--2-2-2-2-2-2-2-2-2-2--|
    A |--2-2-2-2-2-2-2-2-2-2--|
    e |--0-0-0-0-0-0-0-0-0-0--|
    
    Play chorus again.
    Then play ending sequence:
    
    Ending
    e |-------------------------------|
    B |-------------------------------|
    G |-------------------------------|
    D |--555555--777777--99999999-77--|
    A |--555555--777777--99999999-77--|
    e |--333333--555555--77777777-55--|
    
    e |-------------------------------|
    B |-------------------------------|
    G |-------------------------------|
    D |--555555--777777--99999999-77--|
    A |--555555--777777--99999999-77--|
    e |--333333--555555--77777777-55--|
    
    e |------------------------------|
    B |------------------------------|
    G |------------------------------|
    D |--555555--777777—-2—-7--2-----|
    A |--555555--777777—-2—-7--2-----|
    e |--333333--555555—-0—-5--0-----|
    
    end on
    D |--9--|
    A |--9--|
    e |--7--|
  • Аккорды, присутствующие в подборе:
Рейтинг: 0 Голосов: 0 Ваша оценка:

© 2012 MuzHub.net

Поддержка: info@muzhub.net. Создание сайта - DesignWebStudio.com.ua